  0
SECTION
  2
HEADER
  9
$ACADVER
  1
AC1032
  9
$ACADMAINTVER
 90
      228
  9
$DWGCODEPAGE
  3
ANSI_1252
  9
$REQUIREDVERSIONS
160
                 0
  9
$INSBASE
 10
0.0
 20
0.0
 30
0.0
  9
$EXTMIN
 10
1.000000000000000E+20
 20
1.000000000000000E+20
 30
1.000000000000000E+20
  9
$EXTMAX
 10
-1.000000000000000E+20
 20
-1.000000000000000E+20
 30
-1.000000000000000E+20
  9
$LIMMIN
 10
0.0
 20
0.0
  9
$LIMMAX
 10
12.0
 20
9.0
  9
$ORTHOMODE
 70
     0
  9
$REGENMODE
 70
     1
  9
$FILLMODE
 70
     1
  9
$QTEXTMODE
 70
     0
  9
$MIRRTEXT
 70
     0
  9
$LTSCALE
 40
1.0
  9
$ATTMODE
 70
     1
  9
$TEXTSIZE
 40
0.2
  9
$TRACEWID
 40
0.05
  9
$TEXTSTYLE
  7
Standard
  9
$CLAYER
  8
0
  9
$CELTYPE
  6
ByLayer
  9
$CECOLOR
 62
   256
  9
$CELTSCALE
 40
1.0
  9
$DISPSILH
 70
     0
  9
$DIMSCALE
 40
1.0
  9
$DIMASZ
 40
0.18
  9
$DIMEXO
 40
0.0625
  9
$DIMDLI
 40
0.38
  9
$DIMRND
 40
0.0
  9
$DIMDLE
 40
0.0
  9
$DIMEXE
 40
0.18
  9
$DIMTP
 40
0.0
  9
$DIMTM
 40
0.0
  9
$DIMTXT
 40
0.18
  9
$DIMCEN
 40
0.09
  9
$DIMTSZ
 40
0.0
  9
$DIMTOL
 70
     0
  9
$DIMLIM
 70
     0
  9
$DIMTIH
 70
     1
  9
$DIMTOH
 70
     1
  9
$DIMSE1
 70
     0
  9
$DIMSE2
 70
     0
  9
$DIMTAD
 70
     0
  9
$DIMZIN
 70
     0
  9
$DIMBLK
  1

  9
$DIMASO
 70
     1
  9
$DIMSHO
 70
     1
  9
$DIMPOST
  1

  9
$DIMAPOST
  1

  9
$DIMALT
 70
     0
  9
$DIMALTD
 70
     2
  9
$DIMALTF
 40
25.4
  9
$DIMLFAC
 40
1.0
  9
$DIMTOFL
 70
     0
  9
$DIMTVP
 40
0.0
  9
$DIMTIX
 70
     0
  9
$DIMSOXD
 70
     0
  9
$DIMSAH
 70
     0
  9
$DIMBLK1
  1

  9
$DIMBLK2
  1

  9
$DIMSTYLE
  2
Standard
  9
$DIMCLRD
 70
     0
  9
$DIMCLRE
 70
     0
  9
$DIMCLRT
 70
     0
  9
$DIMTFAC
 40
1.0
  9
$DIMGAP
 40
0.09
  9
$DIMJUST
 70
     0
  9
$DIMSD1
 70
     0
  9
$DIMSD2
 70
     0
  9
$DIMTOLJ
 70
     1
  9
$DIMTZIN
 70
     0
  9
$DIMALTZ
 70
     0
  9
$DIMALTTZ
 70
     0
  9
$DIMUPT
 70
     0
  9
$DIMDEC
 70
     4
  9
$DIMTDEC
 70
     4
  9
$DIMALTU
 70
     2
  9
$DIMALTTD
 70
     2
  9
$DIMTXSTY
  7
Standard
  9
$DIMAUNIT
 70
     0
  9
$DIMADEC
 70
     0
  9
$DIMALTRND
 40
0.0
  9
$DIMAZIN
 70
     0
  9
$DIMDSEP
 70
    46
  9
$DIMATFIT
 70
     3
  9
$DIMFRAC
 70
     0
  9
$DIMLDRBLK
  1

  9
$DIMLUNIT
 70
     2
  9
$DIMLWD
 70
    -2
  9
$DIMLWE
 70
    -2
  9
$DIMTMOVE
 70
     0
  9
$DIMFXL
 40
1.0
  9
$DIMFXLON
 70
     0
  9
$DIMJOGANG
 40
0.7853981633974483
  9
$DIMTFILL
 70
     0
  9
$DIMTFILLCLR
 70
     0
  9
$DIMARCSYM
 70
     0
  9
$DIMLTYPE
  6

  9
$DIMLTEX1
  6

  9
$DIMLTEX2
  6

  9
$DIMTXTDIRECTION
 70
     0
  9
$LUNITS
 70
     2
  9
$LUPREC
 70
     4
  9
$SKETCHINC
 40
0.1
  9
$FILLETRAD
 40
0.0
  9
$AUNITS
 70
     0
  9
$AUPREC
 70
     0
  9
$MENU
  1
.
  9
$ELEVATION
 40
0.0
  9
$PELEVATION
 40
0.0
  9
$THICKNESS
 40
0.0
  9
$LIMCHECK
 70
     0
  9
$CHAMFERA
 40
0.0
  9
$CHAMFERB
 40
0.0
  9
$CHAMFERC
 40
0.0
  9
$CHAMFERD
 40
0.0
  9
$SKPOLY
 70
     0
  9
$TDCREATE
 40
2460084.665474537
  9
$TDUCREATE
 40
2460084.623807870
  9
$TDUPDATE
 40
2460084.665474537
  9
$TDUUPDATE
 40
2460084.623807870
  9
$TDINDWG
 40
0.0000000000
  9
$TDUSRTIMER
 40
0.0000000000
  9
$USRTIMER
 70
     1
  9
$ANGBASE
 50
0.0
  9
$ANGDIR
 70
     0
  9
$PDMODE
 70
     0
  9
$PDSIZE
 40
0.0
  9
$PLINEWID
 40
0.0
  9
$SPLFRAME
 70
     0
  9
$SPLINETYPE
 70
     6
  9
$SPLINESEGS
 70
     8
  9
$HANDSEED
  5
174
  9
$SURFTAB1
 70
     6
  9
$SURFTAB2
 70
     6
  9
$SURFTYPE
 70
     6
  9
$SURFU
 70
     6
  9
$SURFV
 70
     6
  9
$UCSBASE
  2

  9
$UCSNAME
  2

  9
$UCSORG
 10
0.0
 20
0.0
 30
0.0
  9
$UCSXDIR
 10
1.0
 20
0.0
 30
0.0
  9
$UCSYDIR
 10
0.0
 20
1.0
 30
0.0
  9
$UCSORTHOREF
  2

  9
$UCSORTHOVIEW
 70
     0
  9
$UCSORGTOP
 10
0.0
 20
0.0
 30
0.0
  9
$UCSORGBOTTOM
 10
0.0
 20
0.0
 30
0.0
  9
$UCSORGLEFT
 10
0.0
 20
0.0
 30
0.0
  9
$UCSORGRIGHT
 10
0.0
 20
0.0
 30
0.0
  9
$UCSORGFRONT
 10
0.0
 20
0.0
 30
0.0
  9
$UCSORGBACK
 10
0.0
 20
0.0
 30
0.0
  9
$PUCSBASE
  2

  9
$PUCSNAME
  2

  9
$PUCSORG
 10
0.0
 20
0.0
 30
0.0
  9
$PUCSXDIR
 10
1.0
 20
0.0
 30
0.0
  9
$PUCSYDIR
 10
0.0
 20
1.0
 30
0.0
  9
$PUCSORTHOREF
  2

  9
$PUCSORTHOVIEW
 70
     0
  9
$PUCSORGTOP
 10
0.0
 20
0.0
 30
0.0
  9
$PUCSORGBOTTOM
 10
0.0
 20
0.0
 30
0.0
  9
$PUCSORGLEFT
 10
0.0
 20
0.0
 30
0.0
  9
$PUCSORGRIGHT
 10
0.0
 20
0.0
 30
0.0
  9
$PUCSORGFRONT
 10
0.0
 20
0.0
 30
0.0
  9
$PUCSORGBACK
 10
0.0
 20
0.0
 30
0.0
  9
$USERI1
 70
     0
  9
$USERI2
 70
     0
  9
$USERI3
 70
     0
  9
$USERI4
 70
     0
  9
$USERI5
 70
     0
  9
$USERR1
 40
0.0
  9
$USERR2
 40
0.0
  9
$USERR3
 40
0.0
  9
$USERR4
 40
0.0
  9
$USERR5
 40
0.0
  9
$WORLDVIEW
 70
     1
  9
$SHADEDGE
 70
     3
  9
$SHADEDIF
 70
    70
  9
$TILEMODE
 70
     1
  9
$MAXACTVP
 70
    64
  9
$PINSBASE
 10
0.0
 20
0.0
 30
0.0
  9
$PLIMCHECK
 70
     0
  9
$PEXTMIN
 10
1.000000000000000E+20
 20
1.000000000000000E+20
 30
1.000000000000000E+20
  9
$PEXTMAX
 10
-1.000000000000000E+20
 20
-1.000000000000000E+20
 30
-1.000000000000000E+20
  9
$PLIMMIN
 10
0.0
 20
0.0
  9
$PLIMMAX
 10
12.0
 20
9.0
  9
$UNITMODE
 70
     0
  9
$VISRETAIN
 70
     1
  9
$PLINEGEN
 70
     0
  9
$PSLTSCALE
 70
     1
  9
$TREEDEPTH
 70
  3020
  9
$CMLSTYLE
  2
Standard
  9
$CMLJUST
 70
     0
  9
$CMLSCALE
 40
1.0
  9
$PROXYGRAPHICS
 70
     1
  9
$MEASUREMENT
 70
     0
  9
$CELWEIGHT
370
    -1
  9
$ENDCAPS
280
     0
  9
$JOINSTYLE
280
     0
  9
$LWDISPLAY
290
     1
  9
$INSUNITS
 70
     4
  9
$HYPERLINKBASE
  1

  9
$STYLESHEET
  1

  9
$XEDIT
290
     1
  9
$CEPSNTYPE
380
     0
  9
$PSTYLEMODE
290
     1
  9
$FINGERPRINTGUID
  2
{21691732-0067-CE49-844E-ABC3C00E595D}
  9
$VERSIONGUID
  2
{5BAE757B-36FD-F346-997F-ADAF00E522DC}
  9
$EXTNAMES
290
     1
  9
$PSVPSCALE
 40
0.0
  9
$OLESTARTUP
290
     0
  9
$SORTENTS
280
   127
  9
$INDEXCTL
280
     0
  9
$HIDETEXT
280
     1
  9
$XCLIPFRAME
280
     2
  9
$HALOGAP
280
     0
  9
$OBSCOLOR
 70
   257
  9
$OBSLTYPE
280
     0
  9
$INTERSECTIONDISPLAY
280
     0
  9
$INTERSECTIONCOLOR
 70
   257
  9
$DIMASSOC
280
     2
  9
$PROJECTNAME
  1

  9
$CAMERADISPLAY
290
     0
  9
$LENSLENGTH
 40
50.0
  9
$CAMERAHEIGHT
 40
0.0
  9
$STEPSPERSEC
 40
2.0
  9
$STEPSIZE
 40
6.0
  9
$3DDWFPREC
 40
2.0
  9
$PSOLWIDTH
 40
0.25
  9
$PSOLHEIGHT
 40
4.0
  9
$LOFTANG1
 40
1.570796326794896
  9
$LOFTANG2
 40
1.570796326794896
  9
$LOFTMAG1
 40
0.0
  9
$LOFTMAG2
 40
0.0
  9
$LOFTPARAM
 70
     7
  9
$LOFTNORMALS
280
     1
  9
$LATITUDE
 40
37.795
  9
$LONGITUDE
 40
-122.394
  9
$NORTHDIRECTION
 40
0.0
  9
$TIMEZONE
 70
 -8000
  9
$LIGHTGLYPHDISPLAY
280
     1
  9
$TILEMODELIGHTSYNCH
280
     1
  9
$CMATERIAL
347
11
  9
$SOLIDHIST
280
     0
  9
$SHOWHIST
280
     1
  9
$DWFFRAME
280
     2
  9
$DGNFRAME
280
     0
  9
$REALWORLDSCALE
290
     1
  9
$INTERFERECOLOR
 62
     1
  9
$INTERFEREOBJVS
345
33
  9
$INTERFEREVPVS
346
30
  9
$CSHADOW
280
     0
  9
$SHADOWPLANELOCATION
 40
0.0
  0
ENDSEC
  0
SECTION
  2
CLASSES
  0
CLASS
  1
ACDBDICTIONARYWDFLT
  2
AcDbDictionaryWithDefault
  3
ObjectDBX Classes
 90
        0
 91
        1
280
     0
281
     0
  0
CLASS
  1
MATERIAL
  2
AcDbMaterial
  3
ObjectDBX Classes
 90
     1153
 91
        3
280
     0
281
     0
  0
CLASS
  1
VISUALSTYLE
  2
AcDbVisualStyle
  3
ObjectDBX Classes
 90
     4095
 91
       24
280
     0
281
     0
  0
CLASS
  1
SCALE
  2
AcDbScale
  3
ObjectDBX Classes
 90
     1153
 91
       17
280
     0
281
     0
  0
CLASS
  1
TABLESTYLE
  2
AcDbTableStyle
  3
ObjectDBX Classes
 90
     4095
 91
        1
280
     0
281
     0
  0
CLASS
  1
MLEADERSTYLE
  2
AcDbMLeaderStyle
  3
ACDB_MLEADERSTYLE_CLASS
 90
     4095
 91
        1
280
     0
281
     0
  0
CLASS
  1
ACDBSECTIONVIEWSTYLE
  2
AcDbSectionViewStyle
  3
ObjectDBX Classes
 90
     1025
 91
        1
280
     0
281
     0
  0
CLASS
  1
ACDBDETAILVIEWSTYLE
  2
AcDbDetailViewStyle
  3
ObjectDBX Classes
 90
     1025
 91
        1
280
     0
281
     0
  0
CLASS
  1
DICTIONARYVAR
  2
AcDbDictionaryVar
  3
ObjectDBX Classes
 90
        0
 91
        5
280
     0
281
     0
  0
CLASS
  1
CELLSTYLEMAP
  2
AcDbCellStyleMap
  3
ObjectDBX Classes
 90
     1152
 91
        1
280
     0
281
     0
  0
ENDSEC
  0
SECTION
  2
TABLES
  0
TABLE
  2
VPORT
  5
8
330
0
100
AcDbSymbolTable
 70
     1
  0
VPORT
  5
57
330
8
100
AcDbSymbolTableRecord
100
AcDbViewportTableRecord
  2
*Active
 70
     0
 10
0.0
 20
0.0
 11
1.0
 21
1.0
 12
0.0
 22
0.0
 13
0.0
 23
0.0
 14
1.0
 24
1.0
 15
0.0
 25
0.0
 16
0.0
 26
0.0
 36
1.0
 17
104.9999970067687
 27
-148.5000119155985
 37
0.0
 40
302.940024307821
 41
0.7070706301791173
 42
50.0
 43
0.0
 44
0.0
 50
0.0
 51
0.0
 71
     0
 72
   100
 73
     1
 74
     1
 75
     0
 76
     0
 77
     0
 78
     0
281
     0
 65
     1
110
0.0
120
0.0
130
0.0
111
1.0
121
0.0
131
0.0
112
0.0
122
1.0
132
0.0
 79
     0
146
0.0
 60
     3
 61
     5
292
     1
282
     1
141
0.0
142
0.0
 63
   250
421
  3355443
  0
ENDTAB
  0
TABLE
  2
LTYPE
  5
5
330
0
100
AcDbSymbolTable
 70
     1
  0
LTYPE
  5
5B
330
5
100
AcDbSymbolTableRecord
100
AcDbLinetypeTableRecord
  2
ByBlock
 70
     0
  3

 72
    65
 73
     0
 40
0.0
  0
LTYPE
  5
5C
330
5
100
AcDbSymbolTableRecord
100
AcDbLinetypeTableRecord
  2
ByLayer
 70
     0
  3

 72
    65
 73
     0
 40
0.0
  0
LTYPE
  5
5D
330
5
100
AcDbSymbolTableRecord
100
AcDbLinetypeTableRecord
  2
Continuous
 70
     0
  3
Solid line
 72
    65
 73
     0
 40
0.0
  0
ENDTAB
  0
TABLE
  2
LAYER
  5
2
330
0
100
AcDbSymbolTable
 70
     2
  0
LAYER
  5
54
330
2
100
AcDbSymbolTableRecord
100
AcDbLayerTableRecord
  2
0
 70
     0
 62
     7
  6
Continuous
370
    -3
390
F
347
21
348
0
  0
LAYER
  5
78
330
2
100
AcDbSymbolTableRecord
100
AcDbLayerTableRecord
  2
Layer 1
 70
     0
 62
     7
  6
Continuous
370
     0
390
F
347
21
348
0
  0
ENDTAB
  0
TABLE
  2
STYLE
  5
3
330
0
100
AcDbSymbolTable
 70
     2
  0
STYLE
  5
55
330
3
100
AcDbSymbolTableRecord
100
AcDbTextStyleTableRecord
  2
Standard
 70
     0
 40
0.0
 41
1.0
 50
0.0
 71
     0
 42
0.2
  3
txt
  4

  0
STYLE
  5
5A
330
3
100
AcDbSymbolTableRecord
100
AcDbTextStyleTableRecord
  2
Annotative
 70
     0
 40
0.0
 41
1.0
 50
0.0
 71
     0
 42
0.2
  3
txt
  4

1001
AcadAnnotative
1000
AnnotativeData
1002
{
1070
     1
1070
     1
1002
}
  0
ENDTAB
  0
TABLE
  2
VIEW
  5
6
330
0
100
AcDbSymbolTable
 70
     0
  0
ENDTAB
  0
TABLE
  2
UCS
  5
7
330
0
100
AcDbSymbolTable
 70
     0
  0
ENDTAB
  0
TABLE
  2
APPID
  5
9
330
0
100
AcDbSymbolTable
 70
     2
  0
APPID
  5
56
330
9
100
AcDbSymbolTableRecord
100
AcDbRegAppTableRecord
  2
ACAD
 70
     0
  0
APPID
  5
5E
330
9
100
AcDbSymbolTableRecord
100
AcDbRegAppTableRecord
  2
AcadAnnotative
 70
     0
  0
ENDTAB
  0
TABLE
  2
DIMSTYLE
  5
A
330
0
100
AcDbSymbolTable
 70
     2
100
AcDbDimStyleTable
 71
     0
  0
DIMSTYLE
105
58
330
A
100
AcDbSymbolTableRecord
100
AcDbDimStyleTableRecord
  2
Standard
 70
     0
340
55
  0
DIMSTYLE
105
59
330
A
100
AcDbSymbolTableRecord
100
AcDbDimStyleTableRecord
  2
Annotative
 70
     0
340
55
1001
AcadAnnotative
1000
AnnotativeData
1002
{
1070
     1
1070
     1
1002
}
  0
ENDTAB
  0
TABLE
  2
BLOCK_RECORD
  5
1
330
0
100
AcDbSymbolTable
 70
     1
  0
BLOCK_RECORD
  5
70
330
1
100
AcDbSymbolTableRecord
100
AcDbBlockTableRecord
  2
*Model_Space
340
73
 70
     0
280
     1
281
     0
  0
BLOCK_RECORD
  5
6C
330
1
100
AcDbSymbolTableRecord
100
AcDbBlockTableRecord
  2
*Paper_Space
340
6F
 70
     0
280
     1
281
     0
  0
BLOCK_RECORD
  5
74
330
1
100
AcDbSymbolTableRecord
100
AcDbBlockTableRecord
  2
*Paper_Space0
340
77
 70
     0
280
     1
281
     0
  0
ENDTAB
  0
ENDSEC
  0
SECTION
  2
BLOCKS
  0
BLOCK
  5
71
330
70
100
AcDbEntity
  8
0
100
AcDbBlockBegin
  2
*Model_Space
 70
     0
 10
0.0
 20
0.0
 30
0.0
  3
*Model_Space
  1

  0
ENDBLK
  5
72
330
70
100
AcDbEntity
  8
0
100
AcDbBlockEnd
  0
BLOCK
  5
6D
330
6C
100
AcDbEntity
 67
     1
  8
0
100
AcDbBlockBegin
  2
*Paper_Space
 70
     0
 10
0.0
 20
0.0
 30
0.0
  3
*Paper_Space
  1

  0
ENDBLK
  5
6E
330
6C
100
AcDbEntity
 67
     1
  8
0
100
AcDbBlockEnd
  0
BLOCK
  5
75
330
74
100
AcDbEntity
 67
     1
  8
0
100
AcDbBlockBegin
  2
*Paper_Space0
 70
     0
 10
0.0
 20
0.0
 30
0.0
  3
*Paper_Space0
  1

  0
ENDBLK
  5
76
330
74
100
AcDbEntity
 67
     1
  8
0
100
AcDbBlockEnd
  0
ENDSEC
  0
SECTION
  2
ENTITIES
  0
LINE
  5
79
330
70
100
AcDbEntity
  8
Layer 1
 62
   230
420
 15608956
370
    25
100
AcDbLine
 10
65.14572372320353
 20
-90.69708341284599
 30
0.0
 11
67.94558916592402
 21
-90.69708341284599
 31
0.0
  0
LINE
  5
7A
330
70
100
AcDbEntity
  8
Layer 1
 62
   230
420
 15608956
370
    25
100
AcDbLine
 10
129.7727147316703
 20
-86.84631788392211
 30
0.0
 11
129.7727147316703
 21
-83.95516851407853
 31
0.0
  0
LINE
  5
7B
330
70
100
AcDbEntity
  8
Layer 1
 62
   230
420
 15608956
370
    25
100
AcDbLine
 10
69.77271473167109
 20
-86.84631788392211
 30
0.0
 11
69.77271473167109
 21
-83.95516851407853
 31
0.0
  0
MTEXT
  5
7C
330
70
100
AcDbEntity
  8
Layer 1
100
AcDbMText
 10
94.97276668293542
 20
-78.02603785365565
 30
0.0
 40
0.2
 41
0.0
 46
0.0
 71
     7
 72
     1
  1
\C230;\c8137966;\FSwiss 721 Bold BT|b1|i0|c1;\H5.994400;\W1.000000;60
 73
     1
 44
1.0
  0
MTEXT
  5
7D
330
70
100
AcDbEntity
  8
Layer 1
100
AcDbMText
 10
48.58016886026436
 20
-137.184551384856
 30
0.0
 40
0.2
 41
0.0
 46
0.0
 71
     7
 72
     1
  1
\C230;\c8137966;\FSwiss 721 Bold BT|b1|i0|c1;\H5.994400;\W1.000000;85
 73
     1
 44
1.0
  0
LINE
  5
7E
330
70
100
AcDbEntity
  8
Layer 1
 62
   230
420
 15608956
370
    35
100
AcDbLine
 10
69.77271473167109
 20
-81.22877837587111
 30
0.0
 11
129.7727147316703
 21
-81.22877837587111
 31
0.0
  0
LINE
  5
7F
330
70
100
AcDbEntity
  8
Layer 1
 62
   230
420
 15608956
370
    35
100
AcDbLine
 10
62.34069149427214
 20
-90.697080394466
 30
0.0
 11
62.34069149427214
 21
-175.6970805539777
 31
0.0
  0
SPLINE
  5
80
330
70
100
AcDbEntity
  8
Layer 1
 62
    18
420
        0
370
    35
100
AcDbSpline
210
0.0
220
0.0
230
1.0
 70
     8
 71
     3
 72
    11
 73
     7
 74
     0
 42
0.0000000001
 43
0.0000000001
 40
0.0
 40
0.0
 40
0.0
 40
0.0
 40
1.0
 40
1.0
 40
1.0
 40
2.0
 40
2.0
 40
2.0
 40
2.0
 10
111.6727147316706
 20
-92.39708021347226
 30
0.0
 10
111.1756584568269
 20
-92.39708021347226
 30
0.0
 10
110.7727147316792
 20
-92.80002393862124
 30
0.0
 10
110.7727147316792
 20
-93.29708021346364
 30
0.0
 10
110.7727147316792
 20
-93.40487718544169
 30
0.0
 10
110.7920804692618
 20
-93.51179742987879
 30
0.0
 10
110.8298891972187
 20
-93.61274636378952
 30
0.0
  0
SPLINE
  5
81
330
70
100
AcDbEntity
  8
Layer 1
 62
    18
420
        0
370
    35
100
AcDbSpline
210
0.0
220
0.0
230
1.0
 70
     8
 71
     3
 72
    11
 73
     7
 74
     0
 42
0.0000000001
 43
0.0000000001
 40
0.0
 40
0.0
 40
0.0
 40
0.0
 40
1.0
 40
1.0
 40
1.0
 40
2.0
 40
2.0
 40
2.0
 40
2.0
 10
127.3318216615189
 20
-165.981414063139
 30
0.0
 10
127.1574840606568
 20
-166.4468937525858
 30
0.0
 10
127.3935013561995
 20
-166.9655681470547
 30
0.0
 10
127.8589810456463
 20
-167.1399057479169
 30
0.0
 10
127.959929979557
 20
-167.1777144758737
 30
0.0
 10
128.0668502239941
 20
-167.1970802134563
 30
0.0
 10
128.1746471959709
 20
-167.1970802134563
 30
0.0
  0
LINE
  5
82
330
70
100
AcDbEntity
  8
Layer 1
 62
    18
420
        0
370
    35
100
AcDbLine
 10
129.7727147316703
 20
-175.6970802134646
 30
0.0
 11
129.7727147316703
 21
-90.6970802134642
 31
0.0
  0
LINE
  5
83
330
70
100
AcDbEntity
  8
Layer 1
 62
    18
420
        0
370
    35
100
AcDbLine
 10
129.7727147316703
 20
-175.6970802134646
 30
0.0
 11
128.3727147316709
 21
-175.6970802134646
 31
0.0
  0
LINE
  5
84
330
70
100
AcDbEntity
  8
Layer 1
 62
    18
420
        0
370
    35
100
AcDbLine
 10
128.3727147316709
 20
-175.6970802134646
 30
0.0
 11
128.3727147316709
 21
-167.197080213464
 31
0.0
  0
LINE
  5
85
330
70
100
AcDbEntity
  8
Layer 1
 62
    18
420
        0
370
    35
100
AcDbLine
 10
128.3727147316709
 20
-136.8970802134639
 30
0.0
 11
125.8727147316705
 21
-136.8970802134639
 31
0.0
  0
LINE
  5
86
330
70
100
AcDbEntity
  8
Layer 1
 62
    18
420
        0
370
    35
100
AcDbLine
 10
125.8727147316705
 20
-136.8970802134639
 30
0.0
 11
125.8727147316705
 21
-134.8970802134638
 31
0.0
  0
LINE
  5
87
330
70
100
AcDbEntity
  8
Layer 1
 62
    18
420
        0
370
    35
100
AcDbLine
 10
125.8727147316705
 20
-134.8970802134638
 30
0.0
 11
128.3727147316709
 21
-134.8970802134638
 31
0.0
  0
LINE
  5
88
330
70
100
AcDbEntity
  8
Layer 1
 62
    18
420
        0
370
    35
100
AcDbLine
 10
128.3727147316709
 20
-134.8970802134638
 30
0.0
 11
128.3727147316709
 21
-132.0970802134644
 31
0.0
  0
LINE
  5
89
330
70
100
AcDbEntity
  8
Layer 1
 62
    18
420
        0
370
    35
100
AcDbLine
 10
128.3727147316709
 20
-132.0970802134644
 30
0.0
 11
125.8727147316705
 21
-132.0970802134644
 31
0.0
  0
LINE
  5
8A
330
70
100
AcDbEntity
  8
Layer 1
 62
    18
420
        0
370
    35
100
AcDbLine
 10
125.8727147316705
 20
-132.0970802134644
 30
0.0
 11
125.8727147316705
 21
-130.0970802134643
 31
0.0
  0
LINE
  5
8B
330
70
100
AcDbEntity
  8
Layer 1
 62
    18
420
        0
370
    35
100
AcDbLine
 10
125.8727147316705
 20
-130.0970802134643
 30
0.0
 11
127.8727147316705
 21
-130.0970802134643
 31
0.0
  0
LINE
  5
8C
330
70
100
AcDbEntity
  8
Layer 1
 62
    18
420
        0
370
    35
100
AcDbLine
 10
127.8727147316705
 20
-130.0970802134643
 30
0.0
 11
127.8727147316705
 21
-127.2970802134642
 31
0.0
  0
LINE
  5
8D
330
70
100
AcDbEntity
  8
Layer 1
 62
    18
420
        0
370
    35
100
AcDbLine
 10
129.7727147316703
 20
-90.6970802134642
 30
0.0
 11
119.8727147316703
 21
-90.6970802134642
 31
0.0
  0
LINE
  5
8E
330
70
100
AcDbEntity
  8
Layer 1
 62
    18
420
        0
370
    35
100
AcDbLine
 10
119.8727147316703
 20
-90.6970802134642
 30
0.0
 11
119.8727147316703
 21
-92.69708021346426
 31
0.0
  0
LINE
  5
8F
330
70
100
AcDbEntity
  8
Layer 1
 62
    18
420
        0
370
    35
100
AcDbLine
 10
122.5727147316713
 20
-95.19708021346467
 30
0.0
 11
114.6727147316714
 21
-95.19708021346467
 31
0.0
  0
LINE
  5
90
330
70
100
AcDbEntity
  8
Layer 1
 62
    18
420
        0
370
    35
100
AcDbLine
 10
114.6727147316714
 20
-92.69708021346426
 30
0.0
 11
117.3727147316711
 21
-92.69708021346426
 31
0.0
  0
LINE
  5
91
330
70
100
AcDbEntity
  8
Layer 1
 62
    18
420
        0
370
    35
100
AcDbLine
 10
117.3727147316711
 20
-92.69708021346426
 30
0.0
 11
117.3727147316711
 21
-90.6970802134642
 31
0.0
  0
LINE
  5
92
330
70
100
AcDbEntity
  8
Layer 1
 62
    18
420
        0
370
    35
100
AcDbLine
 10
117.3727147316711
 20
-90.6970802134642
 30
0.0
 11
112.972714731671
 21
-90.6970802134642
 31
0.0
  0
LINE
  5
93
330
70
100
AcDbEntity
  8
Layer 1
 62
    18
420
        0
370
    35
100
AcDbLine
 10
127.8727147316705
 20
-99.69708021346386
 30
0.0
 11
126.2727147316705
 21
-99.69708021346386
 31
0.0
  0
LINE
  5
94
330
70
100
AcDbEntity
  8
Layer 1
 62
    18
420
        0
370
    35
100
AcDbLine
 10
126.2727147316705
 20
-99.69708021346386
 30
0.0
 11
126.2727147316705
 21
-96.69708021346441
 31
0.0
  0
LINE
  5
95
330
70
100
AcDbEntity
  8
Layer 1
 62
    18
420
        0
370
    35
100
AcDbLine
 10
126.2727147316705
 20
-96.69708021346441
 30
0.0
 11
123.4727147316704
 21
-96.69708021346441
 31
0.0
  0
LINE
  5
96
330
70
100
AcDbEntity
  8
Layer 1
 62
    18
420
        0
370
    35
100
AcDbLine
 10
123.4727147316704
 20
-96.69708021346441
 30
0.0
 11
123.4727147316704
 21
-99.69708021346386
 31
0.0
  0
LINE
  5
97
330
70
100
AcDbEntity
  8
Layer 1
 62
    18
420
        0
370
    35
100
AcDbLine
 10
123.4727147316704
 20
-99.69708021346386
 30
0.0
 11
121.8727147316703
 21
-99.69708021346386
 31
0.0
  0
LINE
  5
98
330
70
100
AcDbEntity
  8
Layer 1
 62
    18
420
        0
370
    35
100
AcDbLine
 10
101.1727147316709
 20
-100.4919206820639
 30
0.0
 11
99.77271473167085
 21
-100.4919206820639
 31
0.0
  0
LINE
  5
99
330
70
100
AcDbEntity
  8
Layer 1
 62
    18
420
        0
370
    35
100
AcDbLine
 10
127.8727147316705
 20
-127.2970802134642
 30
0.0
 11
125.8727147316705
 21
-127.2970802134642
 31
0.0
  0
LINE
  5
9A
330
70
100
AcDbEntity
  8
Layer 1
 62
    18
420
        0
370
    35
100
AcDbLine
 10
125.8727147316705
 20
-127.2970802134642
 30
0.0
 11
125.8727147316705
 21
-120.2970802134639
 31
0.0
  0
LINE
  5
9B
330
70
100
AcDbEntity
  8
Layer 1
 62
    18
420
        0
370
    35
100
AcDbLine
 10
125.8727147316705
 20
-120.2970802134639
 30
0.0
 11
127.8727147316705
 21
-120.2970802134639
 31
0.0
  0
LINE
  5
9C
330
70
100
AcDbEntity
  8
Layer 1
 62
    18
420
        0
370
    35
100
AcDbLine
 10
127.8727147316705
 20
-120.2970802134639
 30
0.0
 11
127.8727147316705
 21
-99.69708021346386
 31
0.0
  0
LINE
  5
9D
330
70
100
AcDbEntity
  8
Layer 1
 62
    18
420
        0
370
    35
100
AcDbLine
 10
110.8298891971712
 20
-93.61274636376386
 30
0.0
 11
111.8707822672705
 21
-96.39192068206476
 31
0.0
  0
LINE
  5
9E
330
70
100
AcDbEntity
  8
Layer 1
 62
    18
420
        0
370
    35
100
AcDbLine
 10
111.8707822672705
 20
-99.09192068206454
 30
0.0
 11
109.5727147316702
 21
-99.09192068206454
 31
0.0
  0
LINE
  5
9F
330
70
100
AcDbEntity
  8
Layer 1
 62
    18
420
        0
370
    35
100
AcDbLine
 10
109.5727147316702
 20
-99.09192068206454
 30
0.0
 11
109.5727147316702
 21
-102.091920682064
 31
0.0
  0
LINE
  5
A0
330
70
100
AcDbEntity
  8
Layer 1
 62
    18
420
        0
370
    35
100
AcDbLine
 10
121.8727147316703
 20
-99.69708021346386
 30
0.0
 11
121.8727147316703
 21
-103.4919206820647
 31
0.0
  0
LINE
  5
A1
330
70
100
AcDbEntity
  8
Layer 1
 62
    18
420
        0
370
    35
100
AcDbLine
 10
111.8707822672705
 20
-96.39192068206476
 30
0.0
 11
111.8707822672705
 21
-99.09192068206454
 31
0.0
  0
LINE
  5
A2
330
70
100
AcDbEntity
  8
Layer 1
 62
    18
420
        0
370
    35
100
AcDbLine
 10
109.5727147316702
 20
-102.091920682064
 30
0.0
 11
106.7727147316714
 21
-102.091920682064
 31
0.0
  0
LINE
  5
A3
330
70
100
AcDbEntity
  8
Layer 1
 62
    18
420
        0
370
    35
100
AcDbLine
 10
106.7727147316714
 20
-102.091920682064
 30
0.0
 11
106.7727147316714
 21
-99.09192068206454
 31
0.0
  0
LINE
  5
A4
330
70
100
AcDbEntity
  8
Layer 1
 62
    18
420
        0
370
    35
100
AcDbLine
 10
101.1727147316709
 20
-103.4919206820647
 30
0.0
 11
101.1727147316709
 21
-100.4919206820639
 31
0.0
  0
LINE
  5
A5
330
70
100
AcDbEntity
  8
Layer 1
 62
    18
420
        0
370
    35
100
AcDbLine
 10
106.7727147316714
 20
-99.09192068206454
 30
0.0
 11
99.77271468917113
 21
-99.09192068206454
 31
0.0
  0
LINE
  5
A6
330
70
100
AcDbEntity
  8
Layer 1
 62
    18
420
        0
370
    35
100
AcDbLine
 10
112.972714731671
 20
-92.39708021346457
 30
0.0
 11
111.6727147316706
 21
-92.39708021346457
 31
0.0
  0
LINE
  5
A7
330
70
100
AcDbEntity
  8
Layer 1
 62
    18
420
        0
370
    35
100
AcDbLine
 10
112.972714731671
 20
-92.39708021346457
 30
0.0
 11
112.972714731671
 21
-90.6970802134642
 31
0.0
  0
LINE
  5
A8
330
70
100
AcDbEntity
  8
Layer 1
 62
    18
420
        0
370
    35
100
AcDbLine
 10
114.6727147316714
 20
-95.19708021346467
 30
0.0
 11
114.6727147316714
 21
-92.69708021346426
 31
0.0
  0
LINE
  5
A9
330
70
100
AcDbEntity
  8
Layer 1
 62
    18
420
        0
370
    35
100
AcDbLine
 10
128.1746471959709
 20
-167.197080213464
 30
0.0
 11
128.3727147316709
 21
-167.197080213464
 31
0.0
  0
LINE
  5
AA
330
70
100
AcDbEntity
  8
Layer 1
 62
    18
420
        0
370
    35
100
AcDbLine
 10
127.3318216614715
 20
-165.9814140631647
 30
0.0
 11
128.3727147316709
 21
-163.2022397448638
 31
0.0
  0
LINE
  5
AB
330
70
100
AcDbEntity
  8
Layer 1
 62
    18
420
        0
370
    35
100
AcDbLine
 10
128.3727147316709
 20
-163.2022397448638
 30
0.0
 11
128.3727147316709
 21
-136.8970802134639
 31
0.0
  0
LINE
  5
AC
330
70
100
AcDbEntity
  8
Layer 1
 62
    18
420
        0
370
    35
100
AcDbLine
 10
122.5727147316713
 20
-95.19708021346467
 30
0.0
 11
122.5727147316713
 21
-92.69708021346426
 31
0.0
  0
LINE
  5
AD
330
70
100
AcDbEntity
  8
Layer 1
 62
    18
420
        0
370
    35
100
AcDbLine
 10
119.8727147316703
 20
-92.69708021346426
 30
0.0
 11
122.5727147316713
 21
-92.69708021346426
 31
0.0
  0
LINE
  5
AE
330
70
100
AcDbEntity
  8
Layer 1
 62
    18
420
        0
370
    35
100
AcDbLine
 10
87.17271473167137
 20
-92.39768621196423
 30
0.0
 11
87.83017309297084
 21
-92.39768621196423
 31
0.0
  0
LINE
  5
AF
330
70
100
AcDbEntity
  8
Layer 1
 62
    18
420
        0
370
    35
100
AcDbLine
 10
112.3727147316703
 20
-92.39768621196423
 30
0.0
 11
111.7152563703705
 21
-92.39768621196423
 31
0.0
  0
SPLINE
  5
B0
330
70
100
AcDbEntity
  8
Layer 1
 62
    18
420
        0
370
    35
100
AcDbSpline
210
0.0
220
0.0
230
1.0
 70
     8
 71
     3
 72
     8
 73
     4
 74
     0
 42
0.0000000001
 43
0.0000000001
 40
0.0
 40
0.0
 40
0.0
 40
0.0
 40
1.0
 40
1.0
 40
1.0
 40
1.0
 10
128.1727147316702
 20
-175.6970802134646
 30
0.0
 10
128.2279432066543
 20
-175.6970802134646
 30
0.0
 10
128.2727147316706
 20
-175.652308688447
 30
0.0
 10
128.2727147316706
 20
-175.5970802134643
 30
0.0
  0
LINE
  5
B1
330
70
100
AcDbEntity
  8
Layer 1
 62
   253
420
 10460830
370
    35
100
AcDbLine
 10
128.1727147316702
 20
-175.6970802134646
 30
0.0
 11
71.37271473167114
 21
-175.6970802134646
 31
0.0
  0
SPLINE
  5
B2
330
70
100
AcDbEntity
  8
Layer 1
 62
   253
420
 10460830
370
    35
100
AcDbSpline
210
0.0
220
0.0
230
1.0
 70
     8
 71
     3
 72
     8
 73
     4
 74
     0
 42
0.0000000001
 43
0.0000000001
 40
0.0
 40
0.0
 40
0.0
 40
0.0
 40
1.0
 40
1.0
 40
1.0
 40
1.0
 10
71.27271473167145
 20
-175.5970802134643
 30
0.0
 10
71.27271473167145
 20
-175.652308688447
 30
0.0
 10
71.31748625668773
 20
-175.6970802134646
 30
0.0
 10
71.37271473167114
 20
-175.6970802134646
 30
0.0
  0
LINE
  5
B3
330
70
100
AcDbEntity
  8
Layer 1
 62
   253
420
 10460830
370
    35
100
AcDbLine
 10
71.27271473167145
 20
-167.2977763027641
 30
0.0
 11
71.27271473167145
 21
-175.5970802134643
 31
0.0
  0
SPLINE
  5
B4
330
70
100
AcDbEntity
  8
Layer 1
 62
   253
420
 10460830
370
    35
100
AcDbSpline
210
0.0
220
0.0
230
1.0
 70
     8
 71
     3
 72
     8
 73
     4
 74
     0
 42
0.0000000001
 43
0.0000000001
 40
0.0
 40
0.0
 40
0.0
 40
0.0
 40
1.0
 40
1.0
 40
1.0
 40
1.0
 10
71.37211143363161
 20
-167.1977781226236
 30
0.0
 10
71.31711941649261
 20
-167.1981098944218
 30
0.0
 10
71.27271473167145
 20
-167.2427832848288
 30
0.0
 10
71.27271473167145
 20
-167.2977763027641
 30
0.0
  0
SPLINE
  5
B5
330
70
100
AcDbEntity
  8
Layer 1
 62
   253
420
 10460830
370
    35
100
AcDbSpline
210
0.0
220
0.0
230
1.0
 70
     8
 71
     3
 72
    11
 73
     7
 74
     0
 42
0.0000000001
 43
0.0000000001
 40
0.0
 40
0.0
 40
0.0
 40
0.0
 40
1.0
 40
1.0
 40
1.0
 40
2.0
 40
2.0
 40
2.0
 40
2.0
 10
71.37211143356103
 20
-167.1977781226223
 30
0.0
 10
71.92438613261457
 20
-167.1944461995578
 30
0.0
 10
72.36939217769498
 20
-166.7440380398287
 30
0.0
 10
72.36606025462918
 20
-166.1917633407739
 30
0.0
 10
72.36536872172618
 20
-166.0771400080151
 30
0.0
 10
72.34497527615046
 20
-165.9634888379455
 30
0.0
 10
72.30577107398358
 20
-165.855776177766
 30
0.0
  0
LINE
  5
B6
330
70
100
AcDbEntity
  8
Layer 1
 62
   253
420
 10460830
370
    35
100
AcDbLine
 10
72.30577107397074
 20
-165.8557761777647
 30
0.0
 11
71.78002189387115
 21
-164.4112921769639
 31
0.0
  0
SPLINE
  5
B7
330
70
100
AcDbEntity
  8
Layer 1
 62
   253
420
 10460830
370
    35
100
AcDbSpline
210
0.0
220
0.0
230
1.0
 70
     8
 71
     3
 72
     8
 73
     4
 74
     0
 42
0.0000000001
 43
0.0000000001
 40
0.0
 40
0.0
 40
0.0
 40
0.0
 40
1.0
 40
1.0
 40
1.0
 40
1.0
 10
71.83211634710083
 20
-164.1158498510115
 30
0.0
 10
71.76322257871112
 20
-164.1979542469886
 30
0.0
 10
71.74336428529345
 20
-164.3105762254126
 30
0.0
 10
71.78002189378419
 20
-164.411292176987
 30
0.0
  0
LINE
  5
B8
330
70
100
AcDbEntity
  8
Layer 1
 62
   253
420
 10460830
370
    35
100
AcDbLine
 10
71.83211634717142
 20
-164.115849850964
 30
0.0
 11
72.18086123177096
 21
-163.7002318818645
 31
0.0
  0
SPLINE
  5
B9
330
70
100
AcDbEntity
  8
Layer 1
 62
   253
420
 10460830
370
    35
100
AcDbSpline
210
0.0
220
0.0
230
1.0
 70
     8
 71
     3
 72
     8
 73
     4
 74
     0
 42
0.0000000001
 43
0.0000000001
 40
0.0
 40
0.0
 40
0.0
 40
0.0
 40
1.0
 40
1.0
 40
1.0
 40
1.0
 10
72.4106745647707
 20
-163.5930681647761
 30
0.0
 10
72.32199669972245
 20
-163.5930681647761
 30
0.0
 10
72.23786226476427
 20
-163.6323006961107
 30
0.0
 10
72.18086123185438
 20
-163.7002318818555
 30
0.0
  0
LINE
  5
BA
330
70
100
AcDbEntity
  8
Layer 1
 62
   253
420
 10460830
370
    35
100
AcDbLine
 10
72.4106745647707
 20
-163.5930681647646
 30
0.0
 11
72.98639657937134
 21
-163.5930681647646
 31
0.0
  0
SPLINE
  5
BB
330
70
100
AcDbEntity
  8
Layer 1
 62
   253
420
 10460830
370
    35
100
AcDbSpline
210
0.0
220
0.0
230
1.0
 70
     8
 71
     3
 72
     8
 73
     4
 74
     0
 42
0.0000000001
 43
0.0000000001
 40
0.0
 40
0.0
 40
0.0
 40
0.0
 40
1.0
 40
1.0
 40
1.0
 40
1.0
 10
73.27748529727573
 20
-163.8204915960792
 30
0.0
 10
73.24416514170734
 20
-163.6868517514227
 30
0.0
 10
73.12412762469754
 20
-163.5930681647415
 30
0.0
 10
72.98639657937134
 20
-163.5930681647415
 30
0.0
  0
LINE
  5
BC
330
70
100
AcDbEntity
  8
Layer 1
 62
   253
420
 10460830
370
    35
100
AcDbLine
 10
73.2774852972706
 20
-163.820491596164
 30
0.0
 11
73.86602191537169
 21
-166.1809830430648
 31
0.0
  0
SPLINE
  5
BD
330
70
100
AcDbEntity
  8
Layer 1
 62
   253
420
 10460830
370
    35
100
AcDbSpline
210
0.0
220
0.0
230
1.0
 70
     8
 71
     3
 72
     8
 73
     4
 74
     0
 42
0.0000000001
 43
0.0000000001
 40
0.0
 40
0.0
 40
0.0
 40
0.0
 40
1.0
 40
1.0
 40
1.0
 40
1.0
 10
72.95494201854231
 20
-168.1279550118527
 30
0.0
 10
73.53638918197441
 20
-167.6493206810986
 30
0.0
 10
73.87108680093466
 20
-166.9340739893548
 30
0.0
 10
73.86602191538805
 20
-166.1809830430712
 30
0.0
  0
SPLINE
  5
BE
330
70
100
AcDbEntity
  8
Layer 1
 62
   253
420
 10460830
370
    35
100
AcDbSpline
210
0.0
220
0.0
230
1.0
 70
     8
 71
     3
 72
     8
 73
     4
 74
     0
 42
0.0000000001
 43
0.0000000001
 40
0.0
 40
0.0
 40
0.0
 40
0.0
 40
1.0
 40
1.0
 40
1.0
 40
1.0
 10
72.95494201861226
 20
-168.127955011845
 30
0.0
 10
72.83956181723403
 20
-168.2229334190711
 30
0.0
 10
72.77271473167118
 20
-168.3645428183071
 30
0.0
 10
72.77271473167118
 20
-168.5139867499648
 30
0.0
  0
SPLINE
  5
BF
330
70
100
AcDbEntity
  8
Layer 1
 62
   253
420
 10460830
370
    35
100
AcDbSpline
210
0.0
220
0.0
230
1.0
 70
     8
 71
     3
 72
     8
 73
     4
 74
     0
 42
0.0000000001
 43
0.0000000001
 40
0.0
 40
0.0
 40
0.0
 40
0.0
 40
1.0
 40
1.0
 40
1.0
 40
1.0
 10
72.77271473167118
 20
-174.1970802134649
 30
0.0
 10
72.77271473167118
 20
-174.2523086884476
 30
0.0
 10
72.8174862566881
 20
-174.2970802134639
 30
0.0
 10
72.87271473167151
 20
-174.2970802134639
 30
0.0
  0
SPLINE
  5
C0
330
70
100
AcDbEntity
  8
Layer 1
 62
    18
420
        0
370
    35
100
AcDbSpline
210
0.0
220
0.0
230
1.0
 70
     8
 71
     3
 72
     8
 73
     4
 74
     0
 42
0.0000000001
 43
0.0000000001
 40
0.0
 40
0.0
 40
0.0
 40
0.0
 40
1.0
 40
1.0
 40
1.0
 40
1.0
 10
126.6727147316705
 20
-174.2970802134639
 30
0.0
 10
126.7279432066546
 20
-174.2970802134639
 30
0.0
 10
126.7727147316708
 20
-174.2523086884476
 30
0.0
 10
126.7727147316708
 20
-174.1970802134649
 30
0.0
  0
SPLINE
  5
C1
330
70
100
AcDbEntity
  8
Layer 1
 62
   253
420
 10526623
370
    35
100
AcDbSpline
210
0.0
220
0.0
230
1.0
 70
     8
 71
     3
 72
     8
 73
     4
 74
     0
 42
0.0000000001
 43
0.0000000001
 40
0.0
 40
0.0
 40
0.0
 40
0.0
 40
1.0
 40
1.0
 40
1.0
 40
1.0
 10
126.7727147316708
 20
-168.5139867499648
 30
0.0
 10
126.7727147316708
 20
-168.3645428183071
 30
0.0
 10
126.705867646108
 20
-168.2229334190711
 30
0.0
 10
126.5904874447291
 20
-168.127955011845
 30
0.0
  0
SPLINE
  5
C2
330
70
100
AcDbEntity
  8
Layer 1
 62
   253
420
 10526623
370
    35
100
AcDbSpline
210
0.0
220
0.0
230
1.0
 70
     8
 71
     3
 72
     8
 73
     4
 74
     0
 42
0.0000000001
 43
0.0000000001
 40
0.0
 40
0.0
 40
0.0
 40
0.0
 40
1.0
 40
1.0
 40
1.0
 40
1.0
 10
125.6794075478539
 20
-166.1809830430712
 30
0.0
 10
125.6743426623073
 20
-166.9340739893548
 30
0.0
 10
126.0090402812675
 20
-167.6493206810986
 30
0.0
 10
126.5904874446996
 20
-168.1279550118527
 30
0.0
  0
LINE
  5
C3
330
70
100
AcDbEntity
  8
Layer 1
 62
   253
420
 10526623
370
    35
100
AcDbLine
 10
126.2679441660714
 20
-163.820491596164
 30
0.0
 11
125.6794075478705
 21
-166.1809830430648
 31
0.0
  0
SPLINE
  5
C4
330
70
100
AcDbEntity
  8
Layer 1
 62
   253
420
 10526623
370
    35
100
AcDbSpline
210
0.0
220
0.0
230
1.0
 70
     8
 71
     3
 72
     8
 73
     4
 74
     0
 42
0.0000000001
 43
0.0000000001
 40
0.0
 40
0.0
 40
0.0
 40
0.0
 40
1.0
 40
1.0
 40
1.0
 40
1.0
 10
126.5590328839707
 20
-163.5930681647415
 30
0.0
 10
126.4213018386438
 20
-163.5930681647415
 30
0.0
 10
126.3012643216347
 20
-163.6868517514227
 30
0.0
 10
126.2679441660663
 20
-163.8204915960792
 30
0.0
  0
LINE
  5
C5
330
70
100
AcDbEntity
  8
Layer 1
 62
   253
420
 10526623
370
    35
100
AcDbLine
 10
127.1347548985713
 20
-163.5930681647646
 30
0.0
 11
126.5590328839707
 21
-163.5930681647646
 31
0.0
  0
SPLINE
  5
C6
330
70
100
AcDbEntity
  8
Layer 1
 62
   253
420
 10526623
370
    35
100
AcDbSpline
210
0.0
220
0.0
230
1.0
 70
     8
 71
     3
 72
     8
 73
     4
 74
     0
 42
0.0000000001
 43
0.0000000001
 40
0.0
 40
0.0
 40
0.0
 40
0.0
 40
1.0
 40
1.0
 40
1.0
 40
1.0
 10
127.3645682314876
 20
-163.7002318818555
 30
0.0
 10
127.3075671985777
 20
-163.6323006961107
 30
0.0
 10
127.2234327636192
 20
-163.5930681647761
 30
0.0
 10
127.1347548985713
 20
-163.5930681647761
 30
0.0
  0
LINE
  5
C7
330
70
100
AcDbEntity
  8
Layer 1
 62
   253
420
 10526623
370
    35
100
AcDbLine
 10
127.7133131160705
 20
-164.115849850964
 30
0.0
 11
127.3645682314709
 21
-163.7002318818645
 31
0.0
  0
SPLINE
  5
C8
330
70
100
AcDbEntity
  8
Layer 1
 62
   253
420
 10526623
370
    35
100
AcDbSpline
210
0.0
220
0.0
230
1.0
 70
     8
 71
     3
 72
     8
 73
     4
 74
     0
 42
0.0000000001
 43
0.0000000001
 40
0.0
 40
0.0
 40
0.0
 40
0.0
 40
1.0
 40
1.0
 40
1.0
 40
1.0
 10
127.7654075694574
 20
-164.411292176987
 30
0.0
 10
127.8020651779484
 20
-164.3105762254126
 30
0.0
 10
127.7822068845308
 20
-164.1979542469886
 30
0.0
 10
127.7133131161411
 20
-164.1158498510115
 30
0.0
  0
LINE
  5
C9
330
70
100
AcDbEntity
  8
Layer 1
 62
   253
420
 10526623
370
    35
100
AcDbLine
 10
127.2396583892712
 20
-165.8557761777647
 30
0.0
 11
127.7654075694702
 21
-164.4112921769639
 31
0.0
  0
SPLINE
  5
CA
330
70
100
AcDbEntity
  8
Layer 1
 62
   253
420
 10526623
370
    35
100
AcDbSpline
210
0.0
220
0.0
230
1.0
 70
     8
 71
     3
 72
    11
 73
     7
 74
     0
 42
0.0000000001
 43
0.0000000001
 40
0.0
 40
0.0
 40
0.0
 40
0.0
 40
1.0
 40
1.0
 40
1.0
 40
2.0
 40
2.0
 40
2.0
 40
2.0
 10
127.2396583892583
 20
-165.855776177766
 30
0.0
 10
127.0507658799241
 20
-166.3747540817695
 30
0.0
 10
127.3183529626682
 20
-166.9485964326438
 30
0.0
 10
127.8373308666717
 20
-167.1374889419767
 30
0.0
 10
127.9450435268525
 20
-167.1766931441442
 30
0.0
 10
128.0586946969208
 20
-167.1970865897193
 30
0.0
 10
128.1733180296809
 20
-167.1977781226236
 30
0.0
  0
SPLINE
  5
CB
330
70
100
AcDbEntity
  8
Layer 1
 62
    18
420
        0
370
    35
100
AcDbSpline
210
0.0
220
0.0
230
1.0
 70
     8
 71
     3
 72
     8
 73
     4
 74
     0
 42
0.0000000001
 43
0.0000000001
 40
0.0
 40
0.0
 40
0.0
 40
0.0
 40
1.0
 40
1.0
 40
1.0
 40
1.0
 10
128.2727147316706
 20
-167.2977763027641
 30
0.0
 10
128.2727147316706
 20
-167.2427832848288
 30
0.0
 10
128.2283100468494
 20
-167.1981098944218
 30
0.0
 10
128.1733180297104
 20
-167.1977781226236
 30
0.0
  0
LINE
  5
CC
330
70
100
AcDbEntity
  8
Layer 1
 62
   253
420
 10526623
370
    35
100
AcDbLine
 10
128.2727147316706
 20
-175.5970802134643
 30
0.0
 11
128.2727147316706
 21
-167.2977763027641
 31
0.0
  0
LINE
  5
CD
330
70
100
AcDbEntity
  8
Layer 1
 62
   253
420
 10460830
370
    35
100
AcDbLine
 10
72.77271473167118
 20
-174.1970802134649
 30
0.0
 11
72.77271473167118
 21
-168.5139867499648
 31
0.0
  0
LINE
  5
CE
330
70
100
AcDbEntity
  8
Layer 1
 62
   253
420
 10460830
370
    35
100
AcDbLine
 10
126.6727147316705
 20
-174.2970802134639
 30
0.0
 11
72.87271473167151
 21
-174.2970802134639
 31
0.0
  0
LINE
  5
CF
330
70
100
AcDbEntity
  8
Layer 1
 62
   253
420
 10526623
370
    35
100
AcDbLine
 10
126.7727147316708
 20
-174.1970802134649
 30
0.0
 11
126.7727147316708
 21
-168.5139867499648
 31
0.0
  0
LINE
  5
D0
330
70
100
AcDbEntity
  8
Layer 1
 62
    18
420
        0
370
    35
100
AcDbLine
 10
78.17271473167074
 20
-115.2970802134644
 30
0.0
 11
71.67271473167147
 21
-115.2970802134644
 31
0.0
  0
LINE
  5
D1
330
70
100
AcDbEntity
  8
Layer 1
 62
    18
420
        0
370
    35
100
AcDbLine
 10
78.17271473167074
 20
-112.2970802134643
 30
0.0
 11
78.17271473167074
 21
-115.2970802134644
 31
0.0
  0
LINE
  5
D2
330
70
100
AcDbEntity
  8
Layer 1
 62
    18
420
        0
370
    35
100
AcDbLine
 10
80.17271473167081
 20
-112.2970802134643
 30
0.0
 11
78.17271473167074
 21
-112.2970802134643
 31
0.0
  0
LINE
  5
D3
330
70
100
AcDbEntity
  8
Layer 1
 62
    18
420
        0
370
    35
100
AcDbLine
 10
80.17271473167081
 20
-120.2970802134639
 30
0.0
 11
80.17271473167081
 21
-112.2970802134643
 31
0.0
  0
LINE
  5
D4
330
70
100
AcDbEntity
  8
Layer 1
 62
    18
420
        0
370
    35
100
AcDbLine
 10
78.17271473167074
 20
-120.2970802134639
 30
0.0
 11
80.17271473167081
 21
-120.2970802134639
 31
0.0
  0
LINE
  5
D5
330
70
100
AcDbEntity
  8
Layer 1
 62
    18
420
        0
370
    35
100
AcDbLine
 10
78.17271473167074
 20
-117.2970802134644
 30
0.0
 11
78.17271473167074
 21
-120.2970802134639
 31
0.0
  0
LINE
  5
D6
330
70
100
AcDbEntity
  8
Layer 1
 62
    18
420
        0
370
    35
100
AcDbLine
 10
71.67271473167147
 20
-117.2970802134644
 30
0.0
 11
78.17271473167074
 21
-117.2970802134644
 31
0.0
  0
LINE
  5
D7
330
70
100
AcDbEntity
  8
Layer 1
 62
    18
420
        0
370
    35
100
AcDbLine
 10
82.17271473167087
 20
-132.0970802134644
 30
0.0
 11
82.17271473167087
 21
-130.0970802134643
 31
0.0
  0
LINE
  5
D8
330
70
100
AcDbEntity
  8
Layer 1
 62
    18
420
        0
370
    35
100
AcDbLine
 10
82.17271473167087
 20
-136.8970802134639
 30
0.0
 11
82.17271473167087
 21
-134.8970802134638
 31
0.0
  0
LINE
  5
D9
330
70
100
AcDbEntity
  8
Layer 1
 62
    18
420
        0
370
    35
100
AcDbLine
 10
71.922714731671
 20
-143.3022397448644
 30
0.0
 11
71.17271473167114
 21
-143.3022397448644
 31
0.0
  0
LINE
  5
DA
330
70
100
AcDbEntity
  8
Layer 1
 62
    18
420
        0
370
    35
100
AcDbLine
 10
71.922714731671
 20
-145.3022397448641
 30
0.0
 11
71.922714731671
 21
-143.3022397448644
 31
0.0
  0
LINE
  5
DB
330
70
100
AcDbEntity
  8
Layer 1
 62
    18
420
        0
370
    35
100
AcDbLine
 10
71.17271473167114
 20
-145.3022397448641
 30
0.0
 11
71.922714731671
 21
-145.3022397448641
 31
0.0
  0
LINE
  5
DC
330
70
100
AcDbEntity
  8
Layer 1
 62
    18
420
        0
370
    35
100
AcDbLine
 10
71.922714731671
 20
-148.1022397448645
 30
0.0
 11
71.17271473167114
 21
-148.1022397448645
 31
0.0
  0
LINE
  5
DD
330
70
100
AcDbEntity
  8
Layer 1
 62
    18
420
        0
370
    35
100
AcDbLine
 10
71.922714731671
 20
-150.1022397448649
 30
0.0
 11
71.922714731671
 21
-148.1022397448645
 31
0.0
  0
LINE
  5
DE
330
70
100
AcDbEntity
  8
Layer 1
 62
    18
420
        0
370
    35
100
AcDbLine
 10
71.17271473167114
 20
-150.1022397448649
 30
0.0
 11
71.922714731671
 21
-150.1022397448649
 31
0.0
  0
LINE
  5
DF
330
70
100
AcDbEntity
  8
Layer 1
 62
    18
420
        0
370
    35
100
AcDbLine
 10
71.922714731671
 20
-152.9022397448638
 30
0.0
 11
71.17271473167114
 21
-152.9022397448638
 31
0.0
  0
LINE
  5
E0
330
70
100
AcDbEntity
  8
Layer 1
 62
    18
420
        0
370
    35
100
AcDbLine
 10
71.922714731671
 20
-154.9022397448638
 30
0.0
 11
71.922714731671
 21
-152.9022397448638
 31
0.0
  0
LINE
  5
E1
330
70
100
AcDbEntity
  8
Layer 1
 62
    18
420
        0
370
    35
100
AcDbLine
 10
71.17271473167114
 20
-154.9022397448638
 30
0.0
 11
71.922714731671
 21
-154.9022397448638
 31
0.0
  0
LINE
  5
E2
330
70
100
AcDbEntity
  8
Layer 1
 62
    18
420
        0
370
    35
100
AcDbLine
 10
71.17271473167114
 20
-159.702239744864
 30
0.0
 11
71.922714731671
 21
-159.702239744864
 31
0.0
  0
LINE
  5
E3
330
70
100
AcDbEntity
  8
Layer 1
 62
    18
420
        0
370
    35
100
AcDbLine
 10
89.97271473167115
 20
-99.09192068206454
 30
0.0
 11
87.67464719597077
 21
-99.09192068206454
 31
0.0
  0
LINE
  5
E4
330
70
100
AcDbEntity
  8
Layer 1
 62
    18
420
        0
370
    35
100
AcDbLine
 10
89.97271473167115
 20
-102.091920682064
 30
0.0
 11
89.97271473167115
 21
-99.09192068206454
 31
0.0
  0
LINE
  5
E5
330
70
100
AcDbEntity
  8
Layer 1
 62
    18
420
        0
370
    35
100
AcDbLine
 10
127.622714731671
 20
-159.702239744864
 30
0.0
 11
128.3727147316709
 21
-159.702239744864
 31
0.0
  0
LINE
  5
E6
330
70
100
AcDbEntity
  8
Layer 1
 62
    18
420
        0
370
    35
100
AcDbLine
 10
127.622714731671
 20
-157.7022397448639
 30
0.0
 11
127.622714731671
 21
-159.702239744864
 31
0.0
  0
LINE
  5
E7
330
70
100
AcDbEntity
  8
Layer 1
 62
    18
420
        0
370
    35
100
AcDbLine
 10
128.3727147316709
 20
-157.7022397448639
 30
0.0
 11
127.622714731671
 21
-157.7022397448639
 31
0.0
  0
LINE
  5
E8
330
70
100
AcDbEntity
  8
Layer 1
 62
    18
420
        0
370
    35
100
AcDbLine
 10
127.622714731671
 20
-154.9022397448638
 30
0.0
 11
128.3727147316709
 21
-154.9022397448638
 31
0.0
  0
LINE
  5
E9
330
70
100
AcDbEntity
  8
Layer 1
 62
    18
420
        0
370
    35
100
AcDbLine
 10
127.622714731671
 20
-152.9022397448638
 30
0.0
 11
127.622714731671
 21
-154.9022397448638
 31
0.0
  0
LINE
  5
EA
330
70
100
AcDbEntity
  8
Layer 1
 62
    18
420
        0
370
    35
100
AcDbLine
 10
128.3727147316709
 20
-152.9022397448638
 30
0.0
 11
127.622714731671
 21
-152.9022397448638
 31
0.0
  0
LINE
  5
EB
330
70
100
AcDbEntity
  8
Layer 1
 62
    18
420
        0
370
    35
100
AcDbLine
 10
127.622714731671
 20
-150.1022397448649
 30
0.0
 11
128.3727147316709
 21
-150.1022397448649
 31
0.0
  0
LINE
  5
EC
330
70
100
AcDbEntity
  8
Layer 1
 62
    18
420
        0
370
    35
100
AcDbLine
 10
127.622714731671
 20
-148.1022397448645
 30
0.0
 11
127.622714731671
 21
-150.1022397448649
 31
0.0
  0
LINE
  5
ED
330
70
100
AcDbEntity
  8
Layer 1
 62
    18
420
        0
370
    35
100
AcDbLine
 10
128.3727147316709
 20
-148.1022397448645
 30
0.0
 11
127.622714731671
 21
-148.1022397448645
 31
0.0
  0
LINE
  5
EE
330
70
100
AcDbEntity
  8
Layer 1
 62
    18
420
        0
370
    35
100
AcDbLine
 10
127.622714731671
 20
-145.3022397448641
 30
0.0
 11
128.3727147316709
 21
-145.3022397448641
 31
0.0
  0
LINE
  5
EF
330
70
100
AcDbEntity
  8
Layer 1
 62
    18
420
        0
370
    35
100
AcDbLine
 10
127.622714731671
 20
-143.3022397448644
 30
0.0
 11
127.622714731671
 21
-145.3022397448641
 31
0.0
  0
LINE
  5
F0
330
70
100
AcDbEntity
  8
Layer 1
 62
    18
420
        0
370
    35
100
AcDbLine
 10
128.3727147316709
 20
-143.3022397448644
 30
0.0
 11
127.622714731671
 21
-143.3022397448644
 31
0.0
  0
LINE
  5
F1
330
70
100
AcDbEntity
  8
Layer 1
 62
    18
420
        0
370
    35
100
AcDbLine
 10
117.3727147316711
 20
-134.8970802134638
 30
0.0
 11
117.3727147316711
 21
-136.8970802134639
 31
0.0
  0
LINE
  5
F2
330
70
100
AcDbEntity
  8
Layer 1
 62
    18
420
        0
370
    35
100
AcDbLine
 10
117.3727147316711
 20
-130.0970802134643
 30
0.0
 11
117.3727147316711
 21
-132.0970802134644
 31
0.0
  0
LINE
  5
F3
330
70
100
AcDbEntity
  8
Layer 1
 62
    18
420
        0
370
    35
100
AcDbLine
 10
121.3727147316713
 20
-117.2970802134644
 30
0.0
 11
127.8727147316705
 21
-117.2970802134644
 31
0.0
  0
LINE
  5
F4
330
70
100
AcDbEntity
  8
Layer 1
 62
    18
420
        0
370
    35
100
AcDbLine
 10
121.3727147316713
 20
-120.2970802134639
 30
0.0
 11
121.3727147316713
 21
-117.2970802134644
 31
0.0
  0
LINE
  5
F5
330
70
100
AcDbEntity
  8
Layer 1
 62
    18
420
        0
370
    35
100
AcDbLine
 10
119.3727147316712
 20
-120.2970802134639
 30
0.0
 11
121.3727147316713
 21
-120.2970802134639
 31
0.0
  0
LINE
  5
F6
330
70
100
AcDbEntity
  8
Layer 1
 62
    18
420
        0
370
    35
100
AcDbLine
 10
119.3727147316712
 20
-112.2970802134643
 30
0.0
 11
119.3727147316712
 21
-120.2970802134639
 31
0.0
  0
LINE
  5
F7
330
70
100
AcDbEntity
  8
Layer 1
 62
    18
420
        0
370
    35
100
AcDbLine
 10
121.3727147316713
 20
-112.2970802134643
 30
0.0
 11
119.3727147316712
 21
-112.2970802134643
 31
0.0
  0
LINE
  5
F8
330
70
100
AcDbEntity
  8
Layer 1
 62
    18
420
        0
370
    35
100
AcDbLine
 10
121.3727147316713
 20
-115.2970802134644
 30
0.0
 11
121.3727147316713
 21
-112.2970802134643
 31
0.0
  0
LINE
  5
F9
330
70
100
AcDbEntity
  8
Layer 1
 62
    18
420
        0
370
    35
100
AcDbLine
 10
127.8727147316705
 20
-115.2970802134644
 30
0.0
 11
121.3727147316713
 21
-115.2970802134644
 31
0.0
  0
LINE
  5
FA
330
70
100
AcDbEntity
  8
Layer 1
 62
    18
420
        0
370
    35
100
AcDbLine
 10
117.7727147316711
 20
-99.69708021346386
 30
0.0
 11
119.3727147316712
 21
-99.69708021346386
 31
0.0
  0
LINE
  5
FB
330
70
100
AcDbEntity
  8
Layer 1
 62
    18
420
        0
370
    35
100
AcDbLine
 10
117.7727147316711
 20
-96.69708021346441
 30
0.0
 11
117.7727147316711
 21
-99.69708021346386
 31
0.0
  0
LINE
  5
FC
330
70
100
AcDbEntity
  8
Layer 1
 62
    18
420
        0
370
    35
100
AcDbLine
 10
114.972714731671
 20
-96.69708021346441
 30
0.0
 11
117.7727147316711
 21
-96.69708021346441
 31
0.0
  0
LINE
  5
FD
330
70
100
AcDbEntity
  8
Layer 1
 62
    18
420
        0
370
    35
100
AcDbLine
 10
114.972714731671
 20
-99.69708021346386
 30
0.0
 11
114.972714731671
 21
-96.69708021346441
 31
0.0
  0
LINE
  5
FE
330
70
100
AcDbEntity
  8
Layer 1
 62
    18
420
        0
370
    35
100
AcDbLine
 10
113.372714731671
 20
-99.69708021346386
 30
0.0
 11
114.972714731671
 21
-99.69708021346386
 31
0.0
  0
LINE
  5
FF
330
70
100
AcDbEntity
  8
Layer 1
 62
    18
420
        0
370
    35
100
AcDbLine
 10
113.372714731671
 20
-103.4919206820647
 30
0.0
 11
113.372714731671
 21
-99.69708021346386
 31
0.0
  0
LINE
  5
100
330
70
100
AcDbEntity
  8
Layer 1
 62
    18
420
        0
370
    35
100
AcDbLine
 10
101.1727147316709
 20
-100.4919206820639
 30
0.0
 11
101.1727147316709
 21
-103.4919206820647
 31
0.0
  0
LINE
  5
101
330
70
100
AcDbEntity
  8
Layer 1
 62
    18
420
        0
370
    35
100
AcDbLine
 10
86.1727147316707
 20
-99.69708021346386
 30
0.0
 11
86.1727147316707
 21
-103.4919206820647
 31
0.0
  0
LINE
  5
102
330
70
100
AcDbEntity
  8
Layer 1
 62
    18
420
        0
370
    35
100
AcDbLine
 10
84.57271473167097
 20
-99.69708021346386
 30
0.0
 11
86.1727147316707
 21
-99.69708021346386
 31
0.0
  0
LINE
  5
103
330
70
100
AcDbEntity
  8
Layer 1
 62
    18
420
        0
370
    35
100
AcDbLine
 10
84.57271473167097
 20
-96.69708021346441
 30
0.0
 11
84.57271473167097
 21
-99.69708021346386
 31
0.0
  0
LINE
  5
104
330
70
100
AcDbEntity
  8
Layer 1
 62
    18
420
        0
370
    35
100
AcDbLine
 10
81.77271473167087
 20
-96.69708021346441
 30
0.0
 11
84.57271473167097
 21
-96.69708021346441
 31
0.0
  0
LINE
  5
105
330
70
100
AcDbEntity
  8
Layer 1
 62
    18
420
        0
370
    35
100
AcDbLine
 10
81.77271473167087
 20
-99.69708021346386
 30
0.0
 11
81.77271473167087
 21
-96.69708021346441
 31
0.0
  0
LINE
  5
106
330
70
100
AcDbEntity
  8
Layer 1
 62
    18
420
        0
370
    35
100
AcDbLine
 10
80.17271473167081
 20
-99.69708021346386
 30
0.0
 11
81.77271473167087
 21
-99.69708021346386
 31
0.0
  0
LINE
  5
107
330
70
100
AcDbEntity
  8
Layer 1
 62
    18
420
        0
370
    35
100
AcDbLine
 10
80.17271473167081
 20
-103.4919206820647
 30
0.0
 11
80.17271473167081
 21
-99.69708021346386
 31
0.0
  0
LINE
  5
108
330
70
100
AcDbEntity
  8
Layer 1
 62
    18
420
        0
370
    35
100
AcDbLine
 10
127.8727147316705
 20
-99.69708021346386
 30
0.0
 11
127.8727147316705
 21
-115.2970802134644
 31
0.0
  0
LINE
  5
109
330
70
100
AcDbEntity
  8
Layer 1
 62
    18
420
        0
370
    35
100
AcDbLine
 10
126.2727147316705
 20
-99.69708021346386
 30
0.0
 11
127.8727147316705
 21
-99.69708021346386
 31
0.0
  0
LINE
  5
10A
330
70
100
AcDbEntity
  8
Layer 1
 62
    18
420
        0
370
    35
100
AcDbLine
 10
126.2727147316705
 20
-96.69708021346441
 30
0.0
 11
126.2727147316705
 21
-99.69708021346386
 31
0.0
  0
LINE
  5
10B
330
70
100
AcDbEntity
  8
Layer 1
 62
    18
420
        0
370
    35
100
AcDbLine
 10
123.4727147316704
 20
-96.69708021346441
 30
0.0
 11
126.2727147316705
 21
-96.69708021346441
 31
0.0
  0
LINE
  5
10C
330
70
100
AcDbEntity
  8
Layer 1
 62
    18
420
        0
370
    35
100
AcDbLine
 10
123.4727147316704
 20
-99.69708021346386
 30
0.0
 11
123.4727147316704
 21
-96.69708021346441
 31
0.0
  0
LINE
  5
10D
330
70
100
AcDbEntity
  8
Layer 1
 62
    18
420
        0
370
    35
100
AcDbLine
 10
121.8727147316703
 20
-99.69708021346386
 30
0.0
 11
123.4727147316704
 21
-99.69708021346386
 31
0.0
  0
LINE
  5
10E
330
70
100
AcDbEntity
  8
Layer 1
 62
    18
420
        0
370
    35
100
AcDbLine
 10
121.8727147316703
 20
-103.4919206820647
 30
0.0
 11
121.8727147316703
 21
-99.69708021346386
 31
0.0
  0
LINE
  5
10F
330
70
100
AcDbEntity
  8
Layer 1
 62
    18
420
        0
370
    35
100
AcDbLine
 10
101.1727147316709
 20
-103.4919206820647
 30
0.0
 11
113.372714731671
 21
-103.4919206820647
 31
0.0
  0
LINE
  5
110
330
70
100
AcDbEntity
  8
Layer 1
 62
    18
420
        0
370
    35
100
AcDbLine
 10
128.3727147316709
 20
-154.9022397448638
 30
0.0
 11
128.3727147316709
 21
-157.7022397448639
 31
0.0
  0
LINE
  5
111
330
70
100
AcDbEntity
  8
Layer 1
 62
    18
420
        0
370
    35
100
AcDbLine
 10
98.37271473167145
 20
-100.4919206820639
 30
0.0
 11
101.1727147316709
 21
-100.4919206820639
 31
0.0
  0
LINE
  5
112
330
70
100
AcDbEntity
  8
Layer 1
 62
    18
420
        0
370
    35
100
AcDbLine
 10
98.37271473167145
 20
-103.4919206820647
 30
0.0
 11
98.37271473167145
 21
-100.4919206820639
 31
0.0
  0
LINE
  5
113
330
70
100
AcDbEntity
  8
Layer 1
 62
    18
420
        0
370
    35
100
AcDbLine
 10
86.1727147316707
 20
-103.4919206820647
 30
0.0
 11
98.37271473167145
 21
-103.4919206820647
 31
0.0
  0
LINE
  5
114
330
70
100
AcDbEntity
  8
Layer 1
 62
    18
420
        0
370
    35
100
AcDbLine
 10
77.67271473167136
 20
-99.69708021346386
 30
0.0
 11
77.67271473167136
 21
-103.4919206820647
 31
0.0
  0
LINE
  5
115
330
70
100
AcDbEntity
  8
Layer 1
 62
    18
420
        0
370
    35
100
AcDbLine
 10
76.07271473167099
 20
-99.69708021346386
 30
0.0
 11
77.67271473167136
 21
-99.69708021346386
 31
0.0
  0
LINE
  5
116
330
70
100
AcDbEntity
  8
Layer 1
 62
    18
420
        0
370
    35
100
AcDbLine
 10
76.07271473167099
 20
-96.69708021346441
 30
0.0
 11
76.07271473167099
 21
-99.69708021346386
 31
0.0
  0
LINE
  5
117
330
70
100
AcDbEntity
  8
Layer 1
 62
    18
420
        0
370
    35
100
AcDbLine
 10
73.27271473167089
 20
-96.69708021346441
 30
0.0
 11
76.07271473167099
 21
-96.69708021346441
 31
0.0
  0
LINE
  5
118
330
70
100
AcDbEntity
  8
Layer 1
 62
    18
420
        0
370
    35
100
AcDbLine
 10
73.27271473167089
 20
-99.69708021346386
 30
0.0
 11
73.27271473167089
 21
-96.69708021346441
 31
0.0
  0
LINE
  5
119
330
70
100
AcDbEntity
  8
Layer 1
 62
    18
420
        0
370
    35
100
AcDbLine
 10
71.67271473167147
 20
-99.69708021346386
 30
0.0
 11
73.27271473167089
 21
-99.69708021346386
 31
0.0
  0
LINE
  5
11A
330
70
100
AcDbEntity
  8
Layer 1
 62
    18
420
        0
370
    35
100
AcDbLine
 10
71.67271473167147
 20
-115.2970802134644
 30
0.0
 11
71.67271473167147
 21
-99.69708021346386
 31
0.0
  0
LINE
  5
11B
330
70
100
AcDbEntity
  8
Layer 1
 62
    18
420
        0
370
    35
100
AcDbLine
 10
73.6727147316709
 20
-120.2970802134639
 30
0.0
 11
71.67271473167147
 21
-120.2970802134639
 31
0.0
  0
LINE
  5
11C
330
70
100
AcDbEntity
  8
Layer 1
 62
    18
420
        0
370
    35
100
AcDbLine
 10
73.6727147316709
 20
-127.2970802134642
 30
0.0
 11
73.6727147316709
 21
-120.2970802134639
 31
0.0
  0
LINE
  5
11D
330
70
100
AcDbEntity
  8
Layer 1
 62
    18
420
        0
370
    35
100
AcDbLine
 10
119.3727147316712
 20
-99.69708021346386
 30
0.0
 11
119.3727147316712
 21
-103.4919206820647
 31
0.0
  0
LINE
  5
11E
330
70
100
AcDbEntity
  8
Layer 1
 62
    18
420
        0
370
    35
100
AcDbLine
 10
71.67271473167147
 20
-130.0970802134643
 30
0.0
 11
71.67271473167147
 21
-127.2970802134642
 31
0.0
  0
LINE
  5
11F
330
70
100
AcDbEntity
  8
Layer 1
 62
    18
420
        0
370
    35
100
AcDbLine
 10
82.17271473167087
 20
-130.0970802134643
 30
0.0
 11
71.67271473167147
 21
-130.0970802134643
 31
0.0
  0
LINE
  5
120
330
70
100
AcDbEntity
  8
Layer 1
 62
    18
420
        0
370
    35
100
AcDbLine
 10
71.17271473167114
 20
-132.0970802134644
 30
0.0
 11
82.17271473167087
 21
-132.0970802134644
 31
0.0
  0
LINE
  5
121
330
70
100
AcDbEntity
  8
Layer 1
 62
    18
420
        0
370
    35
100
AcDbLine
 10
71.17271473167114
 20
-134.8970802134638
 30
0.0
 11
71.17271473167114
 21
-132.0970802134644
 31
0.0
  0
LINE
  5
122
330
70
100
AcDbEntity
  8
Layer 1
 62
    18
420
        0
370
    35
100
AcDbLine
 10
82.17271473167087
 20
-134.8970802134638
 30
0.0
 11
71.17271473167114
 21
-134.8970802134638
 31
0.0
  0
LINE
  5
123
330
70
100
AcDbEntity
  8
Layer 1
 62
    18
420
        0
370
    35
100
AcDbLine
 10
71.17271473167114
 20
-136.8970802134639
 30
0.0
 11
82.17271473167087
 21
-136.8970802134639
 31
0.0
  0
LINE
  5
124
330
70
100
AcDbEntity
  8
Layer 1
 62
    18
420
        0
370
    35
100
AcDbLine
 10
71.17271473167114
 20
-143.3022397448644
 30
0.0
 11
71.17271473167114
 21
-136.8970802134639
 31
0.0
  0
LINE
  5
125
330
70
100
AcDbEntity
  8
Layer 1
 62
   250
420
  2301728
370
    35
100
AcDbLine
 10
72.21360780177107
 20
-165.9814140631647
 30
0.0
 11
71.17271473167114
 21
-163.2022397448638
 31
0.0
  0
SPLINE
  5
126
330
70
100
AcDbEntity
  8
Layer 1
 62
   250
420
  2301728
370
    35
100
AcDbSpline
210
0.0
220
0.0
230
1.0
 70
     8
 71
     3
 72
    11
 73
     7
 74
     0
 42
0.0000000001
 43
0.0000000001
 40
0.0
 40
0.0
 40
0.0
 40
0.0
 40
1.0
 40
1.0
 40
1.0
 40
2.0
 40
2.0
 40
2.0
 40
2.0
 10
71.37078226727132
 20
-167.1970802134563
 30
0.0
 10
71.86783854211502
 20
-167.1970802134563
 30
0.0
 10
72.27078226726366
 20
-166.7941364883073
 30
0.0
 10
72.27078226726366
 20
-166.2970802134649
 30
0.0
 10
72.27078226726366
 20
-166.1892832414869
 30
0.0
 10
72.2514165296798
 20
-166.0823629970497
 30
0.0
 10
72.2136078017236
 20
-165.981414063139
 30
0.0
  0
LINE
  5
127
330
70
100
AcDbEntity
  8
Layer 1
 62
   253
420
 10460830
370
    35
100
AcDbLine
 10
71.17271473167114
 20
-167.197080213464
 30
0.0
 11
71.37078226727132
 21
-167.197080213464
 31
0.0
  0
LINE
  5
128
330
70
100
AcDbEntity
  8
Layer 1
 62
    18
420
        0
370
    35
100
AcDbLine
 10
71.17271473167114
 20
-175.6970802134646
 30
0.0
 11
71.17271473167114
 21
-167.197080213464
 31
0.0
  0
LINE
  5
129
330
70
100
AcDbEntity
  8
Layer 1
 62
    18
420
        0
370
    35
100
AcDbLine
 10
69.77271473167109
 20
-175.6970802134646
 30
0.0
 11
71.17271473167114
 21
-175.6970802134646
 31
0.0
  0
LINE
  5
12A
330
70
100
AcDbEntity
  8
Layer 1
 62
    18
420
        0
370
    35
100
AcDbLine
 10
69.77271473167109
 20
-90.6970802134642
 30
0.0
 11
69.77271473167109
 21
-175.6970802134646
 31
0.0
  0
LINE
  5
12B
330
70
100
AcDbEntity
  8
Layer 1
 62
    18
420
        0
370
    35
100
AcDbLine
 10
79.67271473167111
 20
-90.6970802134642
 30
0.0
 11
69.77271473167109
 21
-90.6970802134642
 31
0.0
  0
LINE
  5
12C
330
70
100
AcDbEntity
  8
Layer 1
 62
    18
420
        0
370
    35
100
AcDbLine
 10
79.67271473167111
 20
-92.69708021346426
 30
0.0
 11
79.67271473167111
 21
-90.6970802134642
 31
0.0
  0
LINE
  5
12D
330
70
100
AcDbEntity
  8
Layer 1
 62
    18
420
        0
370
    35
100
AcDbLine
 10
76.97271473167102
 20
-92.69708021346426
 30
0.0
 11
79.67271473167111
 21
-92.69708021346426
 31
0.0
  0
LINE
  5
12E
330
70
100
AcDbEntity
  8
Layer 1
 62
    18
420
        0
370
    35
100
AcDbLine
 10
76.97271473167102
 20
-95.19708021346467
 30
0.0
 11
76.97271473167102
 21
-92.69708021346426
 31
0.0
  0
LINE
  5
12F
330
70
100
AcDbEntity
  8
Layer 1
 62
    18
420
        0
370
    35
100
AcDbLine
 10
84.87271473167066
 20
-95.19708021346467
 30
0.0
 11
76.97271473167102
 21
-95.19708021346467
 31
0.0
  0
LINE
  5
130
330
70
100
AcDbEntity
  8
Layer 1
 62
    18
420
        0
370
    35
100
AcDbLine
 10
84.87271473167066
 20
-92.69708021346426
 30
0.0
 11
84.87271473167066
 21
-95.19708021346467
 31
0.0
  0
LINE
  5
131
330
70
100
AcDbEntity
  8
Layer 1
 62
    18
420
        0
370
    35
100
AcDbLine
 10
82.17271473167087
 20
-92.69708021346426
 30
0.0
 11
84.87271473167066
 21
-92.69708021346426
 31
0.0
  0
LINE
  5
132
330
70
100
AcDbEntity
  8
Layer 1
 62
    18
420
        0
370
    35
100
AcDbLine
 10
82.17271473167087
 20
-90.6970802134642
 30
0.0
 11
82.17271473167087
 21
-92.69708021346426
 31
0.0
  0
LINE
  5
133
330
70
100
AcDbEntity
  8
Layer 1
 62
    18
420
        0
370
    35
100
AcDbLine
 10
86.57271473167135
 20
-90.6970802134642
 30
0.0
 11
82.17271473167087
 21
-90.6970802134642
 31
0.0
  0
LINE
  5
134
330
70
100
AcDbEntity
  8
Layer 1
 62
    18
420
        0
370
    35
100
AcDbLine
 10
86.57271473167135
 20
-92.39708021346457
 30
0.0
 11
86.57271473167135
 21
-90.6970802134642
 31
0.0
  0
LINE
  5
135
330
70
100
AcDbEntity
  8
Layer 1
 62
    18
420
        0
370
    35
100
AcDbLine
 10
87.87271473167075
 20
-92.39708021346457
 30
0.0
 11
86.57271473167135
 21
-92.39708021346457
 31
0.0
  0
SPLINE
  5
136
330
70
100
AcDbEntity
  8
Layer 1
 62
    18
420
        0
370
    35
100
AcDbSpline
210
0.0
220
0.0
230
1.0
 70
     8
 71
     3
 72
    11
 73
     7
 74
     0
 42
0.0000000001
 43
0.0000000001
 40
0.0
 40
0.0
 40
0.0
 40
0.0
 40
1.0
 40
1.0
 40
1.0
 40
2.0
 40
2.0
 40
2.0
 40
2.0
 10
88.71554026612335
 20
-93.61274636378952
 30
0.0
 10
88.88987786698619
 20
-93.14726667434273
 30
0.0
 10
88.65386057144215
 20
-92.62859227987389
 30
0.0
 10
88.188380881996
 20
-92.45425467901169
 30
0.0
 10
88.08743194808464
 20
-92.41644595105483
 30
0.0
 10
87.98051170364882
 20
-92.39708021347226
 30
0.0
 10
87.87271473167075
 20
-92.39708021347226
 30
0.0
  0
LINE
  5
137
330
70
100
AcDbEntity
  8
Layer 1
 62
    18
420
        0
370
    35
100
AcDbLine
 10
87.67464719597077
 20
-96.39192068206476
 30
0.0
 11
88.71554026607137
 21
-93.61274636376386
 31
0.0
  0
LINE
  5
138
330
70
100
AcDbEntity
  8
Layer 1
 62
    18
420
        0
370
    35
100
AcDbLine
 10
87.67464719597077
 20
-99.09192068206454
 30
0.0
 11
87.67464719597077
 21
-96.39192068206476
 31
0.0
  0
LINE
  5
139
330
70
100
AcDbEntity
  8
Layer 1
 62
    18
420
        0
370
    35
100
AcDbLine
 10
77.67271473167136
 20
-103.4919206820647
 30
0.0
 11
80.17271473167081
 21
-103.4919206820647
 31
0.0
  0
LINE
  5
13A
330
70
100
AcDbEntity
  8
Layer 1
 62
    18
420
        0
370
    35
100
AcDbLine
 10
128.3727147316709
 20
-159.702239744864
 30
0.0
 11
128.3727147316709
 21
-163.2022397448638
 31
0.0
  0
LINE
  5
13B
330
70
100
AcDbEntity
  8
Layer 1
 62
    18
420
        0
370
    35
100
AcDbLine
 10
92.77271473167125
 20
-102.091920682064
 30
0.0
 11
89.97271473167115
 21
-102.091920682064
 31
0.0
  0
LINE
  5
13C
330
70
100
AcDbEntity
  8
Layer 1
 62
    18
420
        0
370
    35
100
AcDbLine
 10
92.77271473167125
 20
-99.09192068206454
 30
0.0
 11
92.77271473167125
 21
-102.091920682064
 31
0.0
  0
LINE
  5
13D
330
70
100
AcDbEntity
  8
Layer 1
 62
    18
420
        0
370
    35
100
AcDbLine
 10
106.7727147316714
 20
-99.09192068206454
 30
0.0
 11
92.77271473167125
 21
-99.09192068206454
 31
0.0
  0
LINE
  5
13E
330
70
100
AcDbEntity
  8
Layer 1
 62
    18
420
        0
370
    35
100
AcDbLine
 10
106.7727147316714
 20
-102.091920682064
 30
0.0
 11
106.7727147316714
 21
-99.09192068206454
 31
0.0
  0
LINE
  5
13F
330
70
100
AcDbEntity
  8
Layer 1
 62
    18
420
        0
370
    35
100
AcDbLine
 10
109.5727147316702
 20
-102.091920682064
 30
0.0
 11
106.7727147316714
 21
-102.091920682064
 31
0.0
  0
LINE
  5
140
330
70
100
AcDbEntity
  8
Layer 1
 62
    18
420
        0
370
    35
100
AcDbLine
 10
109.5727147316702
 20
-99.09192068206454
 30
0.0
 11
109.5727147316702
 21
-102.091920682064
 31
0.0
  0
LINE
  5
141
330
70
100
AcDbEntity
  8
Layer 1
 62
    18
420
        0
370
    35
100
AcDbLine
 10
111.8707822672705
 20
-99.09192068206454
 30
0.0
 11
109.5727147316702
 21
-99.09192068206454
 31
0.0
  0
LINE
  5
142
330
70
100
AcDbEntity
  8
Layer 1
 62
    18
420
        0
370
    35
100
AcDbLine
 10
111.8707822672705
 20
-96.39192068206476
 30
0.0
 11
111.8707822672705
 21
-99.09192068206454
 31
0.0
  0
LINE
  5
143
330
70
100
AcDbEntity
  8
Layer 1
 62
    18
420
        0
370
    35
100
AcDbLine
 10
112.972714731671
 20
-92.39708021346457
 30
0.0
 11
111.6727147316706
 21
-92.39708021346457
 31
0.0
  0
LINE
  5
144
330
70
100
AcDbEntity
  8
Layer 1
 62
    18
420
        0
370
    35
100
AcDbLine
 10
112.972714731671
 20
-90.6970802134642
 30
0.0
 11
112.972714731671
 21
-92.39708021346457
 31
0.0
  0
LINE
  5
145
330
70
100
AcDbEntity
  8
Layer 1
 62
    18
420
        0
370
    35
100
AcDbLine
 10
117.3727147316711
 20
-90.6970802134642
 30
0.0
 11
112.972714731671
 21
-90.6970802134642
 31
0.0
  0
LINE
  5
146
330
70
100
AcDbEntity
  8
Layer 1
 62
    18
420
        0
370
    35
100
AcDbLine
 10
117.3727147316711
 20
-92.69708021346426
 30
0.0
 11
117.3727147316711
 21
-90.6970802134642
 31
0.0
  0
LINE
  5
147
330
70
100
AcDbEntity
  8
Layer 1
 62
    18
420
        0
370
    35
100
AcDbLine
 10
114.6727147316714
 20
-92.69708021346426
 30
0.0
 11
117.3727147316711
 21
-92.69708021346426
 31
0.0
  0
LINE
  5
148
330
70
100
AcDbEntity
  8
Layer 1
 62
    18
420
        0
370
    35
100
AcDbLine
 10
114.6727147316714
 20
-95.19708021346467
 30
0.0
 11
114.6727147316714
 21
-92.69708021346426
 31
0.0
  0
LINE
  5
149
330
70
100
AcDbEntity
  8
Layer 1
 62
    18
420
        0
370
    35
100
AcDbLine
 10
122.5727147316713
 20
-95.19708021346467
 30
0.0
 11
114.6727147316714
 21
-95.19708021346467
 31
0.0
  0
LINE
  5
14A
330
70
100
AcDbEntity
  8
Layer 1
 62
    18
420
        0
370
    35
100
AcDbLine
 10
122.5727147316713
 20
-92.69708021346426
 30
0.0
 11
122.5727147316713
 21
-95.19708021346467
 31
0.0
  0
LINE
  5
14B
330
70
100
AcDbEntity
  8
Layer 1
 62
    18
420
        0
370
    35
100
AcDbLine
 10
119.8727147316703
 20
-92.69708021346426
 30
0.0
 11
122.5727147316713
 21
-92.69708021346426
 31
0.0
  0
LINE
  5
14C
330
70
100
AcDbEntity
  8
Layer 1
 62
    18
420
        0
370
    35
100
AcDbLine
 10
119.8727147316703
 20
-90.6970802134642
 30
0.0
 11
119.8727147316703
 21
-92.69708021346426
 31
0.0
  0
LINE
  5
14D
330
70
100
AcDbEntity
  8
Layer 1
 62
    18
420
        0
370
    35
100
AcDbLine
 10
129.7727147316703
 20
-90.6970802134642
 30
0.0
 11
119.8727147316703
 21
-90.6970802134642
 31
0.0
  0
LINE
  5
14E
330
70
100
AcDbEntity
  8
Layer 1
 62
    18
420
        0
370
    35
100
AcDbLine
 10
129.7727147316703
 20
-175.6970802134646
 30
0.0
 11
129.7727147316703
 21
-90.6970802134642
 31
0.0
  0
LINE
  5
14F
330
70
100
AcDbEntity
  8
Layer 1
 62
    18
420
        0
370
    35
100
AcDbLine
 10
128.3727147316709
 20
-175.6970802134646
 30
0.0
 11
129.7727147316703
 21
-175.6970802134646
 31
0.0
  0
LINE
  5
150
330
70
100
AcDbEntity
  8
Layer 1
 62
    18
420
        0
370
    35
100
AcDbLine
 10
128.3727147316709
 20
-167.197080213464
 30
0.0
 11
128.3727147316709
 21
-175.6970802134646
 31
0.0
  0
LINE
  5
151
330
70
100
AcDbEntity
  8
Layer 1
 62
    18
420
        0
370
    35
100
AcDbLine
 10
128.1746471959709
 20
-167.197080213464
 30
0.0
 11
128.3727147316709
 21
-167.197080213464
 31
0.0
  0
SPLINE
  5
152
330
70
100
AcDbEntity
  8
Layer 1
 62
   250
420
  2301728
370
    35
100
AcDbSpline
210
0.0
220
0.0
230
1.0
 70
     8
 71
     3
 72
    11
 73
     7
 74
     0
 42
0.0000000001
 43
0.0000000001
 40
0.0
 40
0.0
 40
0.0
 40
0.0
 40
1.0
 40
1.0
 40
1.0
 40
2.0
 40
2.0
 40
2.0
 40
2.0
 10
127.3318216615189
 20
-165.981414063139
 30
0.0
 10
127.1574840606568
 20
-166.4468937525858
 30
0.0
 10
127.3935013561995
 20
-166.9655681470547
 30
0.0
 10
127.8589810456463
 20
-167.1399057479169
 30
0.0
 10
127.959929979557
 20
-167.1777144758737
 30
0.0
 10
128.0668502239941
 20
-167.1970802134563
 30
0.0
 10
128.1746471959709
 20
-167.1970802134563
 30
0.0
  0
LINE
  5
153
330
70
100
AcDbEntity
  8
Layer 1
 62
    18
420
        0
370
    35
100
AcDbLine
 10
128.3727147316709
 20
-163.2022397448638
 30
0.0
 11
127.3318216614715
 21
-165.9814140631647
 31
0.0
  0
LINE
  5
154
330
70
100
AcDbEntity
  8
Layer 1
 62
    18
420
        0
370
    35
100
AcDbLine
 10
128.3727147316709
 20
-136.8970802134639
 30
0.0
 11
128.3727147316709
 21
-143.3022397448644
 31
0.0
  0
LINE
  5
155
330
70
100
AcDbEntity
  8
Layer 1
 62
    18
420
        0
370
    35
100
AcDbLine
 10
117.3727147316711
 20
-136.8970802134639
 30
0.0
 11
128.3727147316709
 21
-136.8970802134639
 31
0.0
  0
LINE
  5
156
330
70
100
AcDbEntity
  8
Layer 1
 62
    18
420
        0
370
    35
100
AcDbLine
 10
128.3727147316709
 20
-134.8970802134638
 30
0.0
 11
117.3727147316711
 21
-134.8970802134638
 31
0.0
  0
LINE
  5
157
330
70
100
AcDbEntity
  8
Layer 1
 62
    18
420
        0
370
    35
100
AcDbLine
 10
128.3727147316709
 20
-132.0970802134644
 30
0.0
 11
128.3727147316709
 21
-134.8970802134638
 31
0.0
  0
LINE
  5
158
330
70
100
AcDbEntity
  8
Layer 1
 62
    18
420
        0
370
    35
100
AcDbLine
 10
117.3727147316711
 20
-132.0970802134644
 30
0.0
 11
128.3727147316709
 21
-132.0970802134644
 31
0.0
  0
LINE
  5
159
330
70
100
AcDbEntity
  8
Layer 1
 62
    18
420
        0
370
    35
100
AcDbLine
 10
127.8727147316705
 20
-130.0970802134643
 30
0.0
 11
117.3727147316711
 21
-130.0970802134643
 31
0.0
  0
LINE
  5
15A
330
70
100
AcDbEntity
  8
Layer 1
 62
    18
420
        0
370
    35
100
AcDbLine
 10
127.8727147316705
 20
-127.2970802134642
 30
0.0
 11
127.8727147316705
 21
-130.0970802134643
 31
0.0
  0
LINE
  5
15B
330
70
100
AcDbEntity
  8
Layer 1
 62
    18
420
        0
370
    35
100
AcDbLine
 10
125.8727147316705
 20
-127.2970802134642
 30
0.0
 11
127.8727147316705
 21
-127.2970802134642
 31
0.0
  0
LINE
  5
15C
330
70
100
AcDbEntity
  8
Layer 1
 62
    18
420
        0
370
    35
100
AcDbLine
 10
125.8727147316705
 20
-120.2970802134639
 30
0.0
 11
125.8727147316705
 21
-127.2970802134642
 31
0.0
  0
LINE
  5
15D
330
70
100
AcDbEntity
  8
Layer 1
 62
    18
420
        0
370
    35
100
AcDbLine
 10
127.8727147316705
 20
-120.2970802134639
 30
0.0
 11
125.8727147316705
 21
-120.2970802134639
 31
0.0
  0
LINE
  5
15E
330
70
100
AcDbEntity
  8
Layer 1
 62
    18
420
        0
370
    35
100
AcDbLine
 10
71.67271473167147
 20
-120.2970802134639
 30
0.0
 11
71.67271473167147
 21
-117.2970802134644
 31
0.0
  0
LINE
  5
15F
330
70
100
AcDbEntity
  8
Layer 1
 62
    18
420
        0
370
    35
100
AcDbLine
 10
127.8727147316705
 20
-117.2970802134644
 30
0.0
 11
127.8727147316705
 21
-120.2970802134639
 31
0.0
  0
LINE
  5
160
330
70
100
AcDbEntity
  8
Layer 1
 62
    18
420
        0
370
    35
100
AcDbLine
 10
119.3727147316712
 20
-103.4919206820647
 30
0.0
 11
121.8727147316703
 21
-103.4919206820647
 31
0.0
  0
LINE
  5
161
330
70
100
AcDbEntity
  8
Layer 1
 62
    18
420
        0
370
    35
100
AcDbLine
 10
71.922714731671
 20
-157.7022397448639
 30
0.0
 11
71.17271473167114
 21
-157.7022397448639
 31
0.0
  0
LINE
  5
162
330
70
100
AcDbEntity
  8
Layer 1
 62
    18
420
        0
370
    35
100
AcDbLine
 10
71.922714731671
 20
-159.702239744864
 30
0.0
 11
71.922714731671
 21
-157.7022397448639
 31
0.0
  0
LINE
  5
163
330
70
100
AcDbEntity
  8
Layer 1
 62
    18
420
        0
370
    35
100
AcDbLine
 10
128.3727147316709
 20
-150.1022397448649
 30
0.0
 11
128.3727147316709
 21
-152.9022397448638
 31
0.0
  0
LINE
  5
164
330
70
100
AcDbEntity
  8
Layer 1
 62
    18
420
        0
370
    35
100
AcDbLine
 10
128.3727147316709
 20
-145.3022397448641
 30
0.0
 11
128.3727147316709
 21
-148.1022397448645
 31
0.0
  0
LINE
  5
165
330
70
100
AcDbEntity
  8
Layer 1
 62
    18
420
        0
370
    35
100
AcDbLine
 10
71.17271473167114
 20
-148.1022397448645
 30
0.0
 11
71.17271473167114
 21
-145.3022397448641
 31
0.0
  0
LINE
  5
166
330
70
100
AcDbEntity
  8
Layer 1
 62
    18
420
        0
370
    35
100
AcDbLine
 10
71.17271473167114
 20
-152.9022397448638
 30
0.0
 11
71.17271473167114
 21
-150.1022397448649
 31
0.0
  0
LINE
  5
167
330
70
100
AcDbEntity
  8
Layer 1
 62
    18
420
        0
370
    35
100
AcDbLine
 10
71.17271473167114
 20
-157.7022397448639
 30
0.0
 11
71.17271473167114
 21
-154.9022397448638
 31
0.0
  0
LINE
  5
168
330
70
100
AcDbEntity
  8
Layer 1
 62
    18
420
        0
370
    35
100
AcDbLine
 10
71.17271473167114
 20
-163.2022397448638
 30
0.0
 11
71.17271473167114
 21
-159.702239744864
 31
0.0
  0
LINE
  5
169
330
70
100
AcDbEntity
  8
Layer 1
 62
    18
420
        0
370
    35
100
AcDbLine
 10
71.67271473167147
 20
-127.2970802134642
 30
0.0
 11
73.6727147316709
 21
-127.2970802134642
 31
0.0
  0
LINE
  5
16A
330
70
100
AcDbEntity
  8
Layer 1
 62
   230
420
 15608956
370
    25
100
AcDbLine
 10
64.65677039161137
 20
-175.5970802134643
 30
0.0
 11
67.45663583433186
 21
-175.5970802134643
 31
0.0
  0
ENDSEC
  0
SECTION
  2
OBJECTS
  0
DICTIONARY
  5
C
330
0
100
AcDbDictionary
281
     1
  3
ACAD_COLOR
350
63
  3
ACAD_DETAILVIEWSTYLE
350
6A
  3
ACAD_GROUP
350
D
  3
ACAD_LAYOUT
350
62
  3
ACAD_MATERIAL
350
10
  3
ACAD_MLEADERSTYLE
350
66
  3
ACAD_MLINESTYLE
350
5F
  3
ACAD_PLOTSETTINGS
350
61
  3
ACAD_PLOTSTYLENAME
350
E
  3
ACAD_SCALELIST
350
42
  3
ACAD_SECTIONVIEWSTYLE
350
68
  3
ACAD_TABLESTYLE
350
64
  3
ACAD_VISUALSTYLE
350
29
  3
ACDB_RECOMPOSE_DATA
350
173
  3
AcDbVariableDictionary
350
16B
  0
DICTIONARY
  5
63
102
{ACAD_REACTORS
330
C
102
}
330
C
100
AcDbDictionary
281
     1
  0
DICTIONARY
  5
6A
102
{ACAD_REACTORS
330
C
102
}
330
C
100
AcDbDictionary
281
     1
  3
Imperial24
350
6B
  0
DICTIONARY
  5
D
102
{ACAD_REACTORS
330
C
102
}
330
C
100
AcDbDictionary
281
     1
  0
DICTIONARY
  5
62
102
{ACAD_REACTORS
330
C
102
}
330
C
100
AcDbDictionary
281
     1
  3
Layout1
350
6F
  3
Layout2
350
77
  3
Model
350
73
  0
DICTIONARY
  5
10
102
{ACAD_REACTORS
330
C
102
}
330
C
100
AcDbDictionary
281
     1
  3
ByBlock
350
19
  3
ByLayer
350
11
  3
Global
350
21
  0
DICTIONARY
  5
66
102
{ACAD_REACTORS
330
C
102
}
330
C
100
AcDbDictionary
281
     1
  3
Standard
350
67
  0
DICTIONARY
  5
5F
102
{ACAD_REACTORS
330
C
102
}
330
C
100
AcDbDictionary
281
     1
  3
Standard
350
60
  0
DICTIONARY
  5
61
102
{ACAD_REACTORS
330
C
102
}
330
C
100
AcDbDictionary
281
     1
  0
ACDBDICTIONARYWDFLT
  5
E
102
{ACAD_REACTORS
330
C
102
}
330
C
100
AcDbDictionary
281
     1
  3
Normal
350
F
100
AcDbDictionaryWithDefault
340
F
  0
DICTIONARY
  5
42
102
{ACAD_REACTORS
330
C
102
}
330
C
100
AcDbDictionary
281
     1
  3
A0
350
43
  3
A1
350
44
  3
A2
350
45
  3
A3
350
46
  3
A4
350
47
  3
A5
350
48
  3
A6
350
49
  3
A7
350
4A
  3
A8
350
4B
  3
A9
350
4C
  3
B0
350
4D
  3
B1
350
4E
  3
B2
350
4F
  3
B3
350
50
  3
B4
350
51
  3
B5
350
52
  3
B6
350
53
  0
DICTIONARY
  5
68
102
{ACAD_REACTORS
330
C
102
}
330
C
100
AcDbDictionary
281
     1
  3
Imperial24
350
69
  0
DICTIONARY
  5
64
102
{ACAD_REACTORS
330
C
102
}
330
C
100
AcDbDictionary
281
     1
  3
Standard
350
65
  0
DICTIONARY
  5
29
102
{ACAD_REACTORS
330
C
102
}
330
C
100
AcDbDictionary
281
     1
  3
2dWireframe
350
2F
  3
Basic
350
2E
  3
Brighten
350
35
  3
ColorChange
350
39
  3
Conceptual
350
32
  3
Dim
350
34
  3
EdgeColorOff
350
41
  3
Facepattern
350
38
  3
Flat
350
2A
  3
FlatWithEdges
350
2B
  3
Gouraud
350
2C
  3
GouraudWithEdges
350
2D
  3
Hidden
350
31
  3
JitterOff
350
3F
  3
Linepattern
350
37
  3
OverhangOff
350
40
  3
Realistic
350
33
  3
Shaded
350
3E
  3
Shaded with edges
350
3D
  3
Shades of Gray
350
3A
  3
Sketchy
350
3B
  3
Thicken
350
36
  3
Wireframe
350
30
  3
X-Ray
350
3C
  0
XRECORD
  5
173
102
{ACAD_REACTORS
330
C
102
}
330
C
100
AcDbXrecord
280
     1
 90
        1
330
65
  0
DICTIONARY
  5
16B
102
{ACAD_REACTORS
330
C
102
}
330
C
100
AcDbDictionary
281
     1
  3
CANNOSCALE
350
170
  3
CMLEADERSTYLE
350
16D
  3
CTABLESTYLE
350
16C
  3
CVIEWDETAILSTYLE
350
16E
  3
CVIEWSECTIONSTYLE
350
16F
  0
ACDBDETAILVIEWSTYLE
  5
6B
102
{ACAD_REACTORS
330
6A
102
}
330
6A
100
AcDbModelDocViewStyle
 70
     0
  3
Imperial24
290
     1
300
Imperial24
 90
        0
100
AcDbDetailViewStyle
 70
     0
 71
     0
 90
        3
 71
     1
340
55
 62
   256
 40
0.24
340
0
 62
   256
 40
0.24
300

 40
0.36
280
     3
 71
     2
340
5D
 90
       25
 62
   256
 71
     3
340
55
 62
   256
 40
0.24
 90
        1
 40
0.75
 90
        1
300
%<\AcVar ViewType \f "%tc1">% %<\AcVar ViewDetailId>%\PSCALE %<\AcVar ViewScale \f "%sn">%
 71
     4
340
5D
 90
       25
 62
   256
340
5D
 90
       25
 62
   256
280
     0
  0
LAYOUT
  5
6F
102
{ACAD_REACTORS
330
62
102
}
330
62
100
AcDbPlotSettings
  1

  2

  4

  6

 40
0.0
 41
0.0
 42
0.0
 43
0.0
 44
0.0
 45
0.0
 46
0.0
 47
0.0
 48
0.0
 49
0.0
140
0.0
141
0.0
142
1.0
143
1.0
 70
   688
 72
     0
 73
     0
 74
     5
  7

 75
    16
147
1.0
 76
     0
 77
     2
 78
   300
148
0.0
149
0.0
100
AcDbLayout
  1
Layout1
 70
     1
 71
     1
 10
0.0
 20
0.0
 11
12.0
 21
9.0
 12
0.0
 22
0.0
 32
0.0
 14
0.0
 24
0.0
 34
0.0
 15
0.0
 25
0.0
 35
0.0
146
0.0
 13
0.0
 23
0.0
 33
0.0
 16
1.0
 26
0.0
 36
0.0
 17
0.0
 27
1.0
 37
0.0
 76
     0
330
6C
  0
LAYOUT
  5
77
102
{ACAD_REACTORS
330
62
102
}
330
62
100
AcDbPlotSettings
  1

  2

  4

  6

 40
0.0
 41
0.0
 42
0.0
 43
0.0
 44
0.0
 45
0.0
 46
0.0
 47
0.0
 48
0.0
 49
0.0
140
0.0
141
0.0
142
1.0
143
1.0
 70
   688
 72
     0
 73
     0
 74
     5
  7

 75
    16
147
1.0
 76
     0
 77
     2
 78
   300
148
0.0
149
0.0
100
AcDbLayout
  1
Layout2
 70
     1
 71
     2
 10
0.0
 20
0.0
 11
12.0
 21
9.0
 12
0.0
 22
0.0
 32
0.0
 14
0.0
 24
0.0
 34
0.0
 15
0.0
 25
0.0
 35
0.0
146
0.0
 13
0.0
 23
0.0
 33
0.0
 16
1.0
 26
0.0
 36
0.0
 17
0.0
 27
1.0
 37
0.0
 76
     0
330
74
  0
LAYOUT
  5
73
102
{ACAD_REACTORS
330
62
102
}
330
62
100
AcDbPlotSettings
  1

  2

  4

  6

 40
0.0
 41
0.0
 42
0.0
 43
0.0
 44
0.0
 45
0.0
 46
0.0
 47
0.0
 48
0.0
 49
0.0
140
0.0
141
0.0
142
1.0
143
1.0
 70
  1712
 72
     0
 73
     0
 74
     0
  7

 75
     0
147
1.0
 76
     0
 77
     2
 78
   300
148
0.0
149
0.0
100
AcDbLayout
  1
Model
 70
     1
 71
     0
 10
0.0
 20
0.0
 11
12.0
 21
9.0
 12
0.0
 22
0.0
 32
0.0
 14
0.0
 24
0.0
 34
0.0
 15
0.0
 25
0.0
 35
0.0
146
0.0
 13
0.0
 23
0.0
 33
0.0
 16
1.0
 26
0.0
 36
0.0
 17
0.0
 27
1.0
 37
0.0
 76
     0
330
70
  0
MATERIAL
  5
19
102
{ACAD_XDICTIONARY
360
1A
102
}
102
{ACAD_REACTORS
330
10
102
}
330
10
100
AcDbMaterial
  1
ByBlock
 72
     0
 43
0.0208333333333333
 43
0.0
 43
0.0
 43
0.0
 43
0.0
 43
0.0208333333333333
 43
0.0
 43
0.0
 43
0.0
 43
0.0
 43
1.0
 43
0.0
 43
0.0
 43
0.0
 43
0.0
 43
1.0
 77
     0
 47
0.0208333333333333
 47
0.0
 47
0.0
 47
0.0
 47
0.0
 47
0.0208333333333333
 47
0.0
 47
0.0
 47
0.0
 47
0.0
 47
1.0
 47
0.0
 47
0.0
 47
0.0
 47
0.0
 47
1.0
171
     0
 49
0.0208333333333333
 49
0.0
 49
0.0
 49
0.0
 49
0.0
 49
0.0208333333333333
 49
0.0
 49
0.0
 49
0.0
 49
0.0
 49
1.0
 49
0.0
 49
0.0
 49
0.0
 49
0.0
 49
1.0
175
     0
142
0.0208333333333333
142
0.0
142
0.0
142
0.0
142
0.0
142
0.0208333333333333
142
0.0
142
0.0
142
0.0
142
0.0
142
1.0
142
0.0
142
0.0
142
0.0
142
0.0
142
1.0
179
     0
144
0.0208333333333333
144
0.0
144
0.0
144
0.0
144
0.0
144
0.0208333333333333
144
0.0
144
0.0
144
0.0
144
0.0
144
1.0
144
0.0
144
0.0
144
0.0
144
0.0
144
1.0
147
0.0208333333333333
147
0.0
147
0.0
147
0.0
147
0.0
147
0.0208333333333333
147
0.0
147
0.0
147
0.0
147
0.0
147
1.0
147
0.0
147
0.0
147
0.0
147
0.0
147
1.0
  0
MATERIAL
  5
11
102
{ACAD_XDICTIONARY
360
12
102
}
102
{ACAD_REACTORS
330
10
102
}
330
10
100
AcDbMaterial
  1
ByLayer
 72
     0
 43
0.0208333333333333
 43
0.0
 43
0.0
 43
0.0
 43
0.0
 43
0.0208333333333333
 43
0.0
 43
0.0
 43
0.0
 43
0.0
 43
1.0
 43
0.0
 43
0.0
 43
0.0
 43
0.0
 43
1.0
 77
     0
 47
0.0208333333333333
 47
0.0
 47
0.0
 47
0.0
 47
0.0
 47
0.0208333333333333
 47
0.0
 47
0.0
 47
0.0
 47
0.0
 47
1.0
 47
0.0
 47
0.0
 47
0.0
 47
0.0
 47
1.0
171
     0
 49
0.0208333333333333
 49
0.0
 49
0.0
 49
0.0
 49
0.0
 49
0.0208333333333333
 49
0.0
 49
0.0
 49
0.0
 49
0.0
 49
1.0
 49
0.0
 49
0.0
 49
0.0
 49
0.0
 49
1.0
175
     0
142
0.0208333333333333
142
0.0
142
0.0
142
0.0
142
0.0
142
0.0208333333333333
142
0.0
142
0.0
142
0.0
142
0.0
142
1.0
142
0.0
142
0.0
142
0.0
142
0.0
142
1.0
179
     0
144
0.0208333333333333
144
0.0
144
0.0
144
0.0
144
0.0
144
0.0208333333333333
144
0.0
144
0.0
144
0.0
144
0.0
144
1.0
144
0.0
144
0.0
144
0.0
144
0.0
144
1.0
147
0.0208333333333333
147
0.0
147
0.0
147
0.0
147
0.0
147
0.0208333333333333
147
0.0
147
0.0
147
0.0
147
0.0
147
1.0
147
0.0
147
0.0
147
0.0
147
0.0
147
1.0
  0
MATERIAL
  5
21
102
{ACAD_XDICTIONARY
360
22
102
}
102
{ACAD_REACTORS
330
10
102
}
330
10
100
AcDbMaterial
  1
Global
 72
     0
 43
0.0208333333333333
 43
0.0
 43
0.0
 43
0.0
 43
0.0
 43
0.0208333333333333
 43
0.0
 43
0.0
 43
0.0
 43
0.0
 43
1.0
 43
0.0
 43
0.0
 43
0.0
 43
0.0
 43
1.0
 77
     0
 47
0.0208333333333333
 47
0.0
 47
0.0
 47
0.0
 47
0.0
 47
0.0208333333333333
 47
0.0
 47
0.0
 47
0.0
 47
0.0
 47
1.0
 47
0.0
 47
0.0
 47
0.0
 47
0.0
 47
1.0
171
     0
 49
0.0208333333333333
 49
0.0
 49
0.0
 49
0.0
 49
0.0
 49
0.0208333333333333
 49
0.0
 49
0.0
 49
0.0
 49
0.0
 49
1.0
 49
0.0
 49
0.0
 49
0.0
 49
0.0
 49
1.0
175
     0
142
0.0208333333333333
142
0.0
142
0.0
142
0.0
142
0.0
142
0.0208333333333333
142
0.0
142
0.0
142
0.0
142
0.0
142
1.0
142
0.0
142
0.0
142
0.0
142
0.0
142
1.0
179
     0
144
0.0208333333333333
144
0.0
144
0.0
144
0.0
144
0.0
144
0.0208333333333333
144
0.0
144
0.0
144
0.0
144
0.0
144
1.0
144
0.0
144
0.0
144
0.0
144
0.0
144
1.0
147
0.0208333333333333
147
0.0
147
0.0
147
0.0
147
0.0
147
0.0208333333333333
147
0.0
147
0.0
147
0.0
147
0.0
147
1.0
147
0.0
147
0.0
147
0.0
147
0.0
147
1.0
  0
MLEADERSTYLE
  5
67
102
{ACAD_REACTORS
330
66
102
}
330
66
100
AcDbMLeaderStyle
179
     2
170
     2
171
     1
172
     0
 90
        2
 40
0.0
 41
0.0
173
     1
 91
-1056964608
340
5B
 92
       -2
290
     1
 42
0.09
291
     1
 43
0.36
  3
Standard
 44
0.18
300

342
55
174
     1
178
     6
175
     1
176
     0
 93
-1056964608
 45
0.18
292
     0
297
     0
 46
0.18
 94
-1056964608
 47
1.0
 49
1.0
140
1.0
293
     1
141
0.0
294
     1
177
     0
142
1.0
295
     1
296
     0
143
0.125
271
     0
272
     9
273
     9
298
     1
  0
MLINESTYLE
  5
60
102
{ACAD_REACTORS
330
5F
102
}
330
5F
100
AcDbMlineStyle
  2
STANDARD
 70
     0
  3

 62
   256
 51
90.0
 52
90.0
 71
     2
 49
0.5
 62
   256
  6
BYLAYER
 49
-0.5
 62
   256
  6
BYLAYER
  0
ACDBPLACEHOLDER
  5
F
102
{ACAD_REACTORS
330
E
102
}
330
E
  0
SCALE
  5
43
102
{ACAD_REACTORS
330
42
102
}
330
42
100
AcDbScale
 70
     0
300
1:1
140
1.0
141
1.0
290
     1
  0
SCALE
  5
44
102
{ACAD_REACTORS
330
42
102
}
330
42
100
AcDbScale
 70
     0
300
1/128" = 1'-0"
140
0.0078125
141
12.0
290
     0
  0
SCALE
  5
45
102
{ACAD_REACTORS
330
42
102
}
330
42
100
AcDbScale
 70
     0
300
1/64" = 1'-0"
140
0.015625
141
12.0
290
     0
  0
SCALE
  5
46
102
{ACAD_REACTORS
330
42
102
}
330
42
100
AcDbScale
 70
     0
300
1/32" = 1'-0"
140
0.03125
141
12.0
290
     0
  0
SCALE
  5
47
102
{ACAD_REACTORS
330
42
102
}
330
42
100
AcDbScale
 70
     0
300
1/16" = 1'-0"
140
0.0625
141
12.0
290
     0
  0
SCALE
  5
48
102
{ACAD_REACTORS
330
42
102
}
330
42
100
AcDbScale
 70
     0
300
3/32" = 1'-0"
140
0.09375
141
12.0
290
     0
  0
SCALE
  5
49
102
{ACAD_REACTORS
330
42
102
}
330
42
100
AcDbScale
 70
     0
300
1/8" = 1'-0"
140
0.125
141
12.0
290
     0
  0
SCALE
  5
4A
102
{ACAD_REACTORS
330
42
102
}
330
42
100
AcDbScale
 70
     0
300
3/16" = 1'-0"
140
0.1875
141
12.0
290
     0
  0
SCALE
  5
4B
102
{ACAD_REACTORS
330
42
102
}
330
42
100
AcDbScale
 70
     0
300
1/4" = 1'-0"
140
0.25
141
12.0
290
     0
  0
SCALE
  5
4C
102
{ACAD_REACTORS
330
42
102
}
330
42
100
AcDbScale
 70
     0
300
3/8" = 1'-0"
140
0.375
141
12.0
290
     0
  0
SCALE
  5
4D
102
{ACAD_REACTORS
330
42
102
}
330
42
100
AcDbScale
 70
     0
300
1/2" = 1'-0"
140
0.5
141
12.0
290
     0
  0
SCALE
  5
4E
102
{ACAD_REACTORS
330
42
102
}
330
42
100
AcDbScale
 70
     0
300
3/4" = 1'-0"
140
0.75
141
12.0
290
     0
  0
SCALE
  5
4F
102
{ACAD_REACTORS
330
42
102
}
330
42
100
AcDbScale
 70
     0
300
1" = 1'-0"
140
1.0
141
12.0
290
     0
  0
SCALE
  5
50
102
{ACAD_REACTORS
330
42
102
}
330
42
100
AcDbScale
 70
     0
300
1-1/2" = 1'-0"
140
1.5
141
12.0
290
     0
  0
SCALE
  5
51
102
{ACAD_REACTORS
330
42
102
}
330
42
100
AcDbScale
 70
     0
300
3" = 1'-0"
140
3.0
141
12.0
290
     0
  0
SCALE
  5
52
102
{ACAD_REACTORS
330
42
102
}
330
42
100
AcDbScale
 70
     0
300
6" = 1'-0"
140
6.0
141
12.0
290
     0
  0
SCALE
  5
53
102
{ACAD_REACTORS
330
42
102
}
330
42
100
AcDbScale
 70
     0
300
1'-0" = 1'-0"
140
12.0
141
12.0
290
     0
  0
ACDBSECTIONVIEWSTYLE
  5
69
102
{ACAD_REACTORS
330
68
102
}
330
68
100
AcDbModelDocViewStyle
 70
     0
  3
Imperial24
290
     1
300
Imperial24
 90
        0
100
AcDbSectionViewStyle
 70
     0
 71
     0
 90
       78
 71
     1
340
55
 62
   256
 40
0.24
340
0
340
0
 62
   256
 40
0.24
300
I, O, Q, S, X, Z
 40
0.48
 90
        3
 40
0.18
 90
        1
 71
     2
340
5D
 90
       25
 62
   256
340
5D
 90
       50
 62
   256
 40
0.24
 40
0.0
 40
0.24
 71
     3
340
55
 62
   256
 40
0.24
 90
        1
 40
0.75
 90
        1
300
%<\AcVar ViewType \f "%tc1">% %<\AcVar ViewSectionStartId>%-%<\AcVar ViewSectionEndId>%\PSCALE %<\AcVar ViewScale \f "%sn">%
 71
     4
 62
   256
 62
   257
300
ANSI31
 40
1.0
 90
        0
290
     0
290
     0
 90
        6
 40
0.0
 40
1.570796326794896
 40
0.2617993877991494
 40
1.308996938995747
 40
-0.2617993877991494
 40
1.832595714594046
  0
TABLESTYLE
  5
65
102
{ACAD_XDICTIONARY
360
171
102
}
102
{ACAD_REACTORS
330
64
102
}
330
64
100
AcDbTableStyle
280
     0
  3
Standard
 70
     0
 71
     0
 40
0.06
 41
0.06
280
     0
281
     0
  7
Standard
140
0.18
170
     2
 62
     0
 63
     7
283
     0
 90
      512
 91
        0
  1

274
    -2
284
     1
 64
     0
275
    -2
285
     1
 65
     0
276
    -2
286
     1
 66
     0
277
    -2
287
     1
 67
     0
278
    -2
288
     1
 68
     0
279
    -2
289
     1
 69
     0
  7
Standard
140
0.25
170
     5
 62
     0
 63
     7
283
     0
 90
      512
 91
        0
  1

274
    -2
284
     1
 64
     0
275
    -2
285
     1
 65
     0
276
    -2
286
     1
 66
     0
277
    -2
287
     1
 67
     0
278
    -2
288
     1
 68
     0
279
    -2
289
     1
 69
     0
  7
Standard
140
0.18
170
     5
 62
     0
 63
     7
283
     0
 90
      512
 91
        0
  1

274
    -2
284
     1
 64
     0
275
    -2
285
     1
 65
     0
276
    -2
286
     1
 66
     0
277
    -2
287
     1
 67
     0
278
    -2
288
     1
 68
     0
279
    -2
289
     1
 69
     0
  0
VISUALSTYLE
  5
2F
102
{ACAD_REACTORS
330
29
102
}
330
29
100
AcDbVisualStyle
  2
2dWireframe
 70
     4
177
     3
291
     0
 70
    58
 90
        0
176
     1
 90
        2
176
     1
 90
        0
176
     1
 90
        0
176
     1
 40
0.6
176
     1
 40
30.0
176
     1
 62
     7
420
 16777215
176
     1
 90
        1
176
     1
 90
        4
176
     1
 62
     7
176
     1
 62
   257
176
     1
 90
        1
176
     1
 90
        1
176
     1
 40
1.0
176
     1
 90
        0
176
     1
 62
   257
176
     1
 40
1.0
176
     1
 90
        1
176
     1
 90
        6
176
     1
 90
        2
176
     1
 62
     7
176
     1
 90
        5
176
     1
 90
        0
176
     1
 90
        0
176
     1
290
     0
176
     1
 90
        1
176
     1
 40
0.0
176
     1
 90
        0
176
     1
290
     1
176
     1
290
     1
176
     1
290
     0
176
     1
290
     0
176
     1
290
     0
176
     1
290
     0
176
     1
290
     0
176
     1
290
     0
176
     1
290
     0
176
     1
 90
       50
176
     1
 40
0.0
176
     1
 40
1.0
176
     1
 90
        0
176
     1
 62
    18
420
        0
176
     1
 90
       50
176
     1
 90
        3
176
     1
 62
     5
420
      255
176
     1
290
     0
176
     1
 90
       50
176
     1
 90
       50
176
     1
 90
       50
176
     1
290
     0
176
     1
 90
       50
176
     1
 62
   256
176
     0
 40
1.0
176
     0
 90
        2
176
     1
  1
strokes_ogs.tif
176
     1
290
     0
176
     1
 40
1.0
176
     1
 40
1.0
176
     1
  0
VISUALSTYLE
  5
2E
102
{ACAD_REACTORS
330
29
102
}
330
29
100
AcDbVisualStyle
  2
Basic
 70
     7
177
     3
291
     1
 70
    58
 90
        1
176
     1
 90
        0
176
     1
 90
        1
176
     1
 90
        0
176
     1
 40
0.6
176
     1
 40
30.0
176
     1
 62
     7
420
 16777215
176
     1
 90
        0
176
     1
 90
        4
176
     1
 62
     7
176
     1
 62
   257
176
     1
 90
        1
176
     1
 90
        1
176
     1
 40
1.0
176
     1
 90
        8
176
     1
 62
     7
176
     1
 40
1.0
176
     1
 90
        1
176
     1
 90
        6
176
     1
 90
        2
176
     1
 62
     7
176
     1
 90
        5
176
     1
 90
        0
176
     1
 90
        0
176
     1
290
     0
176
     1
 90
        1
176
     1
 40
0.0
176
     1
 90
        0
176
     1
290
     0
176
     1
290
     1
176
     1
290
     1
176
     1
290
     0
176
     1
290
     0
176
     1
290
     0
176
     1
290
     0
176
     1
290
     0
176
     1
290
     0
176
     1
 90
       50
176
     1
 40
0.0
176
     1
 40
1.0
176
     1
 90
        0
176
     1
 62
    18
420
        0
176
     1
 90
       50
176
     1
 90
        3
176
     1
 62
     5
420
      255
176
     1
290
     0
176
     1
 90
       50
176
     1
 90
       50
176
     1
 90
       50
176
     1
290
     0
176
     1
 90
       50
176
     1
 62
   256
176
     0
 40
1.0
176
     0
 90
        2
176
     1
  1
strokes_ogs.tif
176
     1
290
     0
176
     1
 40
1.0
176
     1
 40
1.0
176
     1
  0
VISUALSTYLE
  5
35
102
{ACAD_REACTORS
330
29
102
}
330
29
100
AcDbVisualStyle
  2
Brighten
 70
    12
177
     3
291
     1
 70
    58
 90
        2
176
     1
 90
        2
176
     1
 90
        0
176
     1
 90
        0
176
     1
 40
0.6
176
     1
 40
30.0
176
     1
 62
     7
420
 16777215
176
     1
 90
        1
176
     1
 90
        4
176
     1
 62
     7
176
     1
 62
   257
176
     1
 90
        1
176
     1
 90
        1
176
     1
 40
1.0
176
     1
 90
        8
176
     1
 62
     7
176
     1
 40
1.0
176
     1
 90
        1
176
     1
 90
        6
176
     1
 90
        2
176
     1
 62
     7
176
     1
 90
        5
176
     1
 90
        0
176
     1
 90
        0
176
     1
290
     0
176
     1
 90
        1
176
     1
 40
50.0
176
     1
 90
        0
176
     1
290
     0
176
     1
290
     1
176
     1
290
     1
176
     1
290
     0
176
     1
290
     0
176
     1
290
     0
176
     1
290
     0
176
     1
290
     0
176
     1
290
     0
176
     1
 90
       50
176
     1
 40
0.0
176
     1
 40
1.0
176
     1
 90
        0
176
     1
 62
    18
420
        0
176
     1
 90
       50
176
     1
 90
        3
176
     1
 62
     5
420
      255
176
     1
290
     0
176
     1
 90
       50
176
     1
 90
       50
176
     1
 90
       50
176
     1
290
     0
176
     1
 90
       50
176
     1
 62
   256
176
     0
 40
1.0
176
     0
 90
        2
176
     1
  1
strokes_ogs.tif
176
     1
290
     0
176
     1
 40
1.0
176
     1
 40
1.0
176
     1
  0
VISUALSTYLE
  5
39
102
{ACAD_REACTORS
330
29
102
}
330
29
100
AcDbVisualStyle
  2
ColorChange
 70
    16
177
     3
291
     1
 70
    58
 90
        2
176
     1
 90
        2
176
     1
 90
        3
176
     1
 90
        0
176
     1
 40
0.6
176
     1
 40
30.0
176
     1
 62
     8
420
  8421504
176
     1
 90
        1
176
     1
 90
        4
176
     1
 62
     7
176
     1
 62
   257
176
     1
 90
        1
176
     1
 90
        1
176
     1
 40
1.0
176
     1
 90
        8
176
     1
 62
     8
420
  8421504
176
     1
 40
1.0
176
     1
 90
        1
176
     1
 90
        6
176
     1
 90
        2
176
     1
 62
     7
176
     1
 90
        5
176
     1
 90
        0
176
     1
 90
        0
176
     1
290
     0
176
     1
 90
        1
176
     1
 40
0.0
176
     1
 90
        0
176
     1
290
     0
176
     1
290
     1
176
     1
290
     1
176
     1
290
     0
176
     1
290
     0
176
     1
290
     0
176
     1
290
     0
176
     1
290
     0
176
     1
290
     0
176
     1
 90
       50
176
     1
 40
0.0
176
     1
 40
1.0
176
     1
 90
        0
176
     1
 62
    18
420
        0
176
     1
 90
       50
176
     1
 90
        3
176
     1
 62
     5
420
      255
176
     1
290
     0
176
     1
 90
       50
176
     1
 90
       50
176
     1
 90
       50
176
     1
290
     0
176
     1
 90
       50
176
     1
 62
   256
176
     0
 40
1.0
176
     0
 90
        2
176
     1
  1
strokes_ogs.tif
176
     1
290
     0
176
     1
 40
1.0
176
     1
 40
1.0
176
     1
  0
VISUALSTYLE
  5
32
102
{ACAD_REACTORS
330
29
102
}
330
29
100
AcDbVisualStyle
  2
Conceptual
 70
     9
177
     3
291
     0
 70
    58
 90
        3
176
     1
 90
        2
176
     1
 90
        0
176
     1
 90
        0
176
     1
 40
0.6
176
     1
 40
30.0
176
     1
 62
     7
420
 16777215
176
     1
 90
        2
176
     1
 90
        2
176
     1
 62
     7
176
     1
 62
   257
176
     1
 90
        1
176
     1
 90
        1
176
     1
 40
179.0
176
     1
 90
        8
176
     1
 62
     7
176
     1
 40
1.0
176
     1
 90
        1
176
     1
 90
        6
176
     1
 90
        2
176
     1
 62
     7
176
     1
 90
        3
176
     1
 90
        0
176
     1
 90
        0
176
     1
290
     0
176
     1
 90
        1
176
     1
 40
0.0
176
     1
 90
        0
176
     1
290
     0
176
     1
290
     1
176
     1
290
     1
176
     1
290
     0
176
     1
290
     0
176
     1
290
     0
176
     1
290
     0
176
     1
290
     0
176
     1
290
     0
176
     1
 90
       50
176
     1
 40
0.0
176
     1
 40
1.0
176
     1
 90
        0
176
     1
 62
    18
420
        0
176
     1
 90
       50
176
     1
 90
        3
176
     1
 62
     5
420
      255
176
     1
290
     0
176
     1
 90
       50
176
     1
 90
       50
176
     1
 90
       50
176
     1
290
     0
176
     1
 90
       50
176
     1
 62
   256
176
     0
 40
1.0
176
     0
 90
        2
176
     1
  1
strokes_ogs.tif
176
     1
290
     0
176
     1
 40
1.0
176
     1
 40
1.0
176
     1
  0
VISUALSTYLE
  5
34
102
{ACAD_REACTORS
330
29
102
}
330
29
100
AcDbVisualStyle
  2
Dim
 70
    11
177
     3
291
     1
 70
    58
 90
        2
176
     1
 90
        2
176
     1
 90
        0
176
     1
 90
        0
176
     1
 40
0.6
176
     1
 40
30.0
176
     1
 62
     7
420
 16777215
176
     1
 90
        1
176
     1
 90
        4
176
     1
 62
     7
176
     1
 62
   257
176
     1
 90
        1
176
     1
 90
        1
176
     1
 40
1.0
176
     1
 90
        8
176
     1
 62
     7
176
     1
 40
1.0
176
     1
 90
        1
176
     1
 90
        6
176
     1
 90
        2
176
     1
 62
     7
176
     1
 90
        5
176
     1
 90
        0
176
     1
 90
        0
176
     1
290
     0
176
     1
 90
        1
176
     1
 40
-50.0
176
     1
 90
        0
176
     1
290
     0
176
     1
290
     1
176
     1
290
     1
176
     1
290
     0
176
     1
290
     0
176
     1
290
     0
176
     1
290
     0
176
     1
290
     0
176
     1
290
     0
176
     1
 90
       50
176
     1
 40
0.0
176
     1
 40
1.0
176
     1
 90
        0
176
     1
 62
    18
420
        0
176
     1
 90
       50
176
     1
 90
        3
176
     1
 62
     5
420
      255
176
     1
290
     0
176
     1
 90
       50
176
     1
 90
       50
176
     1
 90
       50
176
     1
290
     0
176
     1
 90
       50
176
     1
 62
   256
176
     0
 40
1.0
176
     0
 90
        2
176
     1
  1
strokes_ogs.tif
176
     1
290
     0
176
     1
 40
1.0
176
     1
 40
1.0
176
     1
  0
VISUALSTYLE
  5
41
102
{ACAD_REACTORS
330
29
102
}
330
29
100
AcDbVisualStyle
  2
EdgeColorOff
 70
    22
177
     3
291
     1
 70
    58
 90
        2
176
     0
 90
        2
176
     0
 90
        0
176
     0
 90
        0
176
     0
 40
0.6
176
     0
 40
30.0
176
     0
 62
     7
420
 16777215
176
     0
 90
        1
176
     0
 90
        4
176
     0
 62
     7
176
     0
 62
   257
176
     0
 90
        1
176
     0
 90
        1
176
     0
 40
1.0
176
     0
 90
        8
176
     2
 62
     7
176
     0
 40
1.0
176
     0
 90
        1
176
     0
 90
        6
176
     0
 90
        2
176
     0
 62
     7
176
     0
 90
        5
176
     0
 90
        0
176
     0
 90
        0
176
     0
290
     0
176
     0
 90
        1
176
     0
 40
0.0
176
     0
 90
        0
176
     0
290
     0
176
     0
290
     1
176
     0
290
     1
176
     0
290
     0
176
     0
290
     0
176
     0
290
     0
176
     0
290
     0
176
     0
290
     0
176
     0
290
     0
176
     0
 90
       50
176
     0
 40
0.0
176
     0
 40
1.0
176
     0
 90
        0
176
     0
 62
    18
420
        0
176
     0
 90
       50
176
     0
 90
        3
176
     0
 62
     5
420
      255
176
     0
290
     0
176
     0
 90
       50
176
     0
 90
       50
176
     0
 90
       50
176
     0
290
     0
176
     0
 90
       50
176
     0
 62
   256
176
     0
 40
1.0
176
     0
 90
        2
176
     0
  1
strokes_ogs.tif
176
     0
290
     0
176
     0
 40
1.0
176
     0
 40
1.0
176
     0
  0
VISUALSTYLE
  5
38
102
{ACAD_REACTORS
330
29
102
}
330
29
100
AcDbVisualStyle
  2
Facepattern
 70
    15
177
     3
291
     1
 70
    58
 90
        2
176
     1
 90
        2
176
     1
 90
        0
176
     1
 90
        0
176
     1
 40
0.6
176
     1
 40
30.0
176
     1
 62
     7
420
 16777215
176
     1
 90
        1
176
     1
 90
        4
176
     1
 62
     7
176
     1
 62
   257
176
     1
 90
        1
176
     1
 90
        1
176
     1
 40
1.0
176
     1
 90
        8
176
     1
 62
     7
176
     1
 40
1.0
176
     1
 90
        1
176
     1
 90
        6
176
     1
 90
        2
176
     1
 62
     7
176
     1
 90
        5
176
     1
 90
        0
176
     1
 90
        0
176
     1
290
     0
176
     1
 90
        1
176
     1
 40
0.0
176
     1
 90
        0
176
     1
290
     0
176
     1
290
     1
176
     1
290
     1
176
     1
290
     0
176
     1
290
     0
176
     1
290
     0
176
     1
290
     0
176
     1
290
     0
176
     1
290
     0
176
     1
 90
       50
176
     1
 40
0.0
176
     1
 40
1.0
176
     1
 90
        0
176
     1
 62
    18
420
        0
176
     1
 90
       50
176
     1
 90
        3
176
     1
 62
     5
420
      255
176
     1
290
     0
176
     1
 90
       50
176
     1
 90
       50
176
     1
 90
       50
176
     1
290
     0
176
     1
 90
       50
176
     1
 62
   256
176
     0
 40
1.0
176
     0
 90
        2
176
     1
  1
strokes_ogs.tif
176
     1
290
     0
176
     1
 40
1.0
176
     1
 40
1.0
176
     1
  0
VISUALSTYLE
  5
2A
102
{ACAD_REACTORS
330
29
102
}
330
29
100
AcDbVisualStyle
  2
Flat
 70
     0
177
     3
291
     1
 70
    58
 90
        2
176
     1
 90
        1
176
     1
 90
        1
176
     1
 90
        2
176
     1
 40
0.6
176
     1
 40
30.0
176
     1
 62
     7
420
 16777215
176
     1
 90
        0
176
     1
 90
        0
176
     1
 62
     7
176
     1
 62
   257
176
     1
 90
        1
176
     1
 90
        1
176
     1
 40
1.0
176
     1
 90
        8
176
     1
 62
     7
176
     1
 40
1.0
176
     1
 90
        1
176
     1
 90
        6
176
     1
 90
        2
176
     1
 62
     7
176
     1
 90
        5
176
     1
 90
        0
176
     1
 90
        0
176
     1
290
     0
176
     1
 90
       13
176
     1
 40
0.0
176
     1
 90
        0
176
     1
290
     0
176
     1
290
     1
176
     1
290
     1
176
     1
290
     0
176
     1
290
     0
176
     1
290
     0
176
     1
290
     0
176
     1
290
     0
176
     1
290
     0
176
     1
 90
       50
176
     1
 40
0.0
176
     1
 40
1.0
176
     1
 90
        0
176
     1
 62
    18
420
        0
176
     1
 90
       50
176
     1
 90
        3
176
     1
 62
     5
420
      255
176
     1
290
     0
176
     1
 90
       50
176
     1
 90
       50
176
     1
 90
       50
176
     1
290
     0
176
     1
 90
       50
176
     1
 62
   256
176
     0
 40
1.0
176
     0
 90
        2
176
     1
  1
strokes_ogs.tif
176
     1
290
     0
176
     1
 40
1.0
176
     1
 40
1.0
176
     1
  0
VISUALSTYLE
  5
2B
102
{ACAD_REACTORS
330
29
102
}
330
29
100
AcDbVisualStyle
  2
FlatWithEdges
 70
     1
177
     3
291
     1
 70
    58
 90
        2
176
     1
 90
        1
176
     1
 90
        1
176
     1
 90
        2
176
     1
 40
0.6
176
     1
 40
30.0
176
     1
 62
     7
420
 16777215
176
     1
 90
        1
176
     1
 90
        0
176
     1
 62
     7
176
     1
 62
   257
176
     1
 90
        1
176
     1
 90
        1
176
     1
 40
1.0
176
     1
 90
        0
176
     1
 62
   257
176
     1
 40
1.0
176
     1
 90
        1
176
     1
 90
        6
176
     1
 90
        2
176
     1
 62
     7
176
     1
 90
        5
176
     1
 90
        0
176
     1
 90
        0
176
     1
290
     0
176
     1
 90
       13
176
     1
 40
0.0
176
     1
 90
        0
176
     1
290
     0
176
     1
290
     1
176
     1
290
     1
176
     1
290
     0
176
     1
290
     0
176
     1
290
     0
176
     1
290
     0
176
     1
290
     0
176
     1
290
     0
176
     1
 90
       50
176
     1
 40
0.0
176
     1
 40
1.0
176
     1
 90
        0
176
     1
 62
    18
420
        0
176
     1
 90
       50
176
     1
 90
        3
176
     1
 62
     5
420
      255
176
     1
290
     0
176
     1
 90
       50
176
     1
 90
       50
176
     1
 90
       50
176
     1
290
     0
176
     1
 90
       50
176
     1
 62
   256
176
     0
 40
1.0
176
     0
 90
        2
176
     1
  1
strokes_ogs.tif
176
     1
290
     0
176
     1
 40
1.0
176
     1
 40
1.0
176
     1
  0
VISUALSTYLE
  5
2C
102
{ACAD_REACTORS
330
29
102
}
330
29
100
AcDbVisualStyle
  2
Gouraud
 70
     2
177
     3
291
     1
 70
    58
 90
        2
176
     1
 90
        2
176
     1
 90
        1
176
     1
 90
        2
176
     1
 40
0.6
176
     1
 40
30.0
176
     1
 62
     7
420
 16777215
176
     1
 90
        0
176
     1
 90
        0
176
     1
 62
     7
176
     1
 62
   257
176
     1
 90
        1
176
     1
 90
        1
176
     1
 40
1.0
176
     1
 90
        0
176
     1
 62
     7
176
     1
 40
1.0
176
     1
 90
        1
176
     1
 90
        6
176
     1
 90
        2
176
     1
 62
     7
176
     1
 90
        5
176
     1
 90
        0
176
     1
 90
        0
176
     1
290
     0
176
     1
 90
       13
176
     1
 40
0.0
176
     1
 90
        0
176
     1
290
     0
176
     1
290
     1
176
     1
290
     1
176
     1
290
     0
176
     1
290
     0
176
     1
290
     0
176
     1
290
     0
176
     1
290
     0
176
     1
290
     0
176
     1
 90
       50
176
     1
 40
0.0
176
     1
 40
1.0
176
     1
 90
        0
176
     1
 62
    18
420
        0
176
     1
 90
       50
176
     1
 90
        3
176
     1
 62
     5
420
      255
176
     1
290
     0
176
     1
 90
       50
176
     1
 90
       50
176
     1
 90
       50
176
     1
290
     0
176
     1
 90
       50
176
     1
 62
   256
176
     0
 40
1.0
176
     0
 90
        2
176
     1
  1
strokes_ogs.tif
176
     1
290
     0
176
     1
 40
1.0
176
     1
 40
1.0
176
     1
  0
VISUALSTYLE
  5
2D
102
{ACAD_REACTORS
330
29
102
}
330
29
100
AcDbVisualStyle
  2
GouraudWithEdges
 70
     3
177
     3
291
     1
 70
    58
 90
        2
176
     1
 90
        2
176
     1
 90
        1
176
     1
 90
        2
176
     1
 40
0.6
176
     1
 40
30.0
176
     1
 62
     7
420
 16777215
176
     1
 90
        1
176
     1
 90
        0
176
     1
 62
     7
176
     1
 62
   257
176
     1
 90
        1
176
     1
 90
        1
176
     1
 40
1.0
176
     1
 90
        0
176
     1
 62
   257
176
     1
 40
1.0
176
     1
 90
        1
176
     1
 90
        6
176
     1
 90
        2
176
     1
 62
     7
176
     1
 90
        5
176
     1
 90
        0
176
     1
 90
        0
176
     1
290
     0
176
     1
 90
       13
176
     1
 40
0.0
176
     1
 90
        0
176
     1
290
     0
176
     1
290
     1
176
     1
290
     1
176
     1
290
     0
176
     1
290
     0
176
     1
290
     0
176
     1
290
     0
176
     1
290
     0
176
     1
290
     0
176
     1
 90
       50
176
     1
 40
0.0
176
     1
 40
1.0
176
     1
 90
        0
176
     1
 62
    18
420
        0
176
     1
 90
       50
176
     1
 90
        3
176
     1
 62
     5
420
      255
176
     1
290
     0
176
     1
 90
       50
176
     1
 90
       50
176
     1
 90
       50
176
     1
290
     0
176
     1
 90
       50
176
     1
 62
   256
176
     0
 40
1.0
176
     0
 90
        2
176
     1
  1
strokes_ogs.tif
176
     1
290
     0
176
     1
 40
1.0
176
     1
 40
1.0
176
     1
  0
VISUALSTYLE
  5
31
102
{ACAD_REACTORS
330
29
102
}
330
29
100
AcDbVisualStyle
  2
Hidden
 70
     6
177
     3
291
     0
 70
    58
 90
        1
176
     1
 90
        2
176
     1
 90
        2
176
     1
 90
        0
176
     1
 40
0.6
176
     1
 40
30.0
176
     1
 62
     7
420
 16777215
176
     1
 90
        2
176
     1
 90
        2
176
     1
 62
     7
176
     1
 62
   257
176
     1
 90
        2
176
     1
 90
        1
176
     1
 40
40.0
176
     1
 90
        0
176
     1
 62
   257
176
     1
 40
1.0
176
     1
 90
        1
176
     1
 90
        6
176
     1
 90
        2
176
     1
 62
     7
176
     1
 90
        3
176
     1
 90
        0
176
     1
 90
        0
176
     1
290
     0
176
     1
 90
        1
176
     1
 40
0.0
176
     1
 90
        0
176
     1
290
     0
176
     1
290
     1
176
     1
290
     1
176
     1
290
     0
176
     1
290
     0
176
     1
290
     0
176
     1
290
     0
176
     1
290
     0
176
     1
290
     0
176
     1
 90
       50
176
     1
 40
0.0
176
     1
 40
1.0
176
     1
 90
        0
176
     1
 62
    18
420
        0
176
     1
 90
       50
176
     1
 90
        3
176
     1
 62
     5
420
      255
176
     1
290
     0
176
     1
 90
       50
176
     1
 90
       50
176
     1
 90
       50
176
     1
290
     0
176
     1
 90
       50
176
     1
 62
   256
176
     0
 40
1.0
176
     0
 90
        2
176
     1
  1
strokes_ogs.tif
176
     1
290
     0
176
     1
 40
1.0
176
     1
 40
1.0
176
     1
  0
VISUALSTYLE
  5
3F
102
{ACAD_REACTORS
330
29
102
}
330
29
100
AcDbVisualStyle
  2
JitterOff
 70
    20
177
     3
291
     1
 70
    58
 90
        2
176
     0
 90
        2
176
     0
 90
        0
176
     0
 90
        0
176
     0
 40
0.6
176
     0
 40
30.0
176
     0
 62
     7
420
 16777215
176
     0
 90
        1
176
     0
 90
        4
176
     0
 62
     7
176
     0
 62
   257
176
     0
 90
        1
176
     0
 90
        1
176
     0
 40
1.0
176
     0
 90
       10
176
     2
 62
     7
176
     0
 40
1.0
176
     0
 90
        1
176
     0
 90
        6
176
     0
 90
        2
176
     0
 62
     7
176
     0
 90
        5
176
     0
 90
        0
176
     0
 90
        0
176
     0
290
     0
176
     0
 90
        1
176
     0
 40
0.0
176
     0
 90
        0
176
     0
290
     0
176
     0
290
     1
176
     0
290
     1
176
     0
290
     0
176
     0
290
     0
176
     0
290
     0
176
     0
290
     0
176
     0
290
     0
176
     0
290
     0
176
     0
 90
       50
176
     0
 40
0.0
176
     0
 40
1.0
176
     0
 90
        0
176
     0
 62
    18
420
        0
176
     0
 90
       50
176
     0
 90
        3
176
     0
 62
     5
420
      255
176
     0
290
     0
176
     0
 90
       50
176
     0
 90
       50
176
     0
 90
       50
176
     0
290
     0
176
     0
 90
       50
176
     0
 62
   256
176
     0
 40
1.0
176
     0
 90
        2
176
     0
  1
strokes_ogs.tif
176
     0
290
     0
176
     0
 40
1.0
176
     0
 40
1.0
176
     0
  0
VISUALSTYLE
  5
37
102
{ACAD_REACTORS
330
29
102
}
330
29
100
AcDbVisualStyle
  2
Linepattern
 70
    14
177
     3
291
     1
 70
    58
 90
        2
176
     1
 90
        2
176
     1
 90
        0
176
     1
 90
        0
176
     1
 40
0.6
176
     1
 40
30.0
176
     1
 62
     7
420
 16777215
176
     1
 90
        1
176
     1
 90
        4
176
     1
 62
     7
176
     1
 62
   257
176
     1
 90
        7
176
     1
 90
        7
176
     1
 40
1.0
176
     1
 90
        8
176
     1
 62
     7
176
     1
 40
1.0
176
     1
 90
        1
176
     1
 90
        6
176
     1
 90
        2
176
     1
 62
     7
176
     1
 90
        5
176
     1
 90
        0
176
     1
 90
        0
176
     1
290
     0
176
     1
 90
        1
176
     1
 40
0.0
176
     1
 90
        0
176
     1
290
     0
176
     1
290
     1
176
     1
290
     1
176
     1
290
     0
176
     1
290
     0
176
     1
290
     0
176
     1
290
     0
176
     1
290
     0
176
     1
290
     0
176
     1
 90
       50
176
     1
 40
0.0
176
     1
 40
1.0
176
     1
 90
        0
176
     1
 62
    18
420
        0
176
     1
 90
       50
176
     1
 90
        3
176
     1
 62
     5
420
      255
176
     1
290
     0
176
     1
 90
       50
176
     1
 90
       50
176
     1
 90
       50
176
     1
290
     0
176
     1
 90
       50
176
     1
 62
   256
176
     0
 40
1.0
176
     0
 90
        2
176
     1
  1
strokes_ogs.tif
176
     1
290
     0
176
     1
 40
1.0
176
     1
 40
1.0
176
     1
  0
VISUALSTYLE
  5
40
102
{ACAD_REACTORS
330
29
102
}
330
29
100
AcDbVisualStyle
  2
OverhangOff
 70
    21
177
     3
291
     1
 70
    58
 90
        2
176
     0
 90
        2
176
     0
 90
        0
176
     0
 90
        0
176
     0
 40
0.6
176
     0
 40
30.0
176
     0
 62
     7
420
 16777215
176
     0
 90
        1
176
     0
 90
        4
176
     0
 62
     7
176
     0
 62
   257
176
     0
 90
        1
176
     0
 90
        1
176
     0
 40
1.0
176
     0
 90
        9
176
     2
 62
     7
176
     0
 40
1.0
176
     0
 90
        1
176
     0
 90
        6
176
     0
 90
        2
176
     0
 62
     7
176
     0
 90
        5
176
     0
 90
        0
176
     0
 90
        0
176
     0
290
     0
176
     0
 90
        1
176
     0
 40
0.0
176
     0
 90
        0
176
     0
290
     0
176
     0
290
     1
176
     0
290
     1
176
     0
290
     0
176
     0
290
     0
176
     0
290
     0
176
     0
290
     0
176
     0
290
     0
176
     0
290
     0
176
     0
 90
       50
176
     0
 40
0.0
176
     0
 40
1.0
176
     0
 90
        0
176
     0
 62
    18
420
        0
176
     0
 90
       50
176
     0
 90
        3
176
     0
 62
     5
420
      255
176
     0
290
     0
176
     0
 90
       50
176
     0
 90
       50
176
     0
 90
       50
176
     0
290
     0
176
     0
 90
       50
176
     0
 62
   256
176
     0
 40
1.0
176
     0
 90
        2
176
     0
  1
strokes_ogs.tif
176
     0
290
     0
176
     0
 40
1.0
176
     0
 40
1.0
176
     0
  0
VISUALSTYLE
  5
33
102
{ACAD_REACTORS
330
29
102
}
330
29
100
AcDbVisualStyle
  2
Realistic
 70
     8
177
     3
291
     0
 70
    58
 90
        2
176
     1
 90
        3
176
     1
 90
        0
176
     1
 90
        2
176
     1
 40
0.6
176
     1
 40
30.0
176
     1
 62
     7
420
 16777215
176
     1
 90
        0
176
     1
 90
        0
176
     1
 62
     7
176
     1
 62
   257
176
     1
 90
        1
176
     1
 90
        1
176
     1
 40
1.0
176
     1
 90
        8
176
     1
 62
   257
176
     1
 40
1.0
176
     1
 90
        1
176
     1
 90
        6
176
     1
 90
        2
176
     1
 62
     7
176
     1
 90
        3
176
     1
 90
        0
176
     1
 90
        0
176
     1
290
     0
176
     1
 90
       13
176
     1
 40
0.0
176
     1
 90
        0
176
     1
290
     0
176
     1
290
     1
176
     1
290
     1
176
     1
290
     0
176
     1
290
     0
176
     1
290
     0
176
     1
290
     0
176
     1
290
     0
176
     1
290
     0
176
     1
 90
       50
176
     1
 40
0.0
176
     1
 40
1.0
176
     1
 90
        0
176
     1
 62
    18
420
        0
176
     1
 90
       50
176
     1
 90
        3
176
     1
 62
     5
420
      255
176
     1
290
     0
176
     1
 90
       50
176
     1
 90
       50
176
     1
 90
       50
176
     1
290
     0
176
     1
 90
       50
176
     1
 62
   256
176
     0
 40
1.0
176
     0
 90
        2
176
     1
  1
strokes_ogs.tif
176
     1
290
     0
176
     1
 40
1.0
176
     1
 40
1.0
176
     1
  0
VISUALSTYLE
  5
3E
102
{ACAD_REACTORS
330
29
102
}
330
29
100
AcDbVisualStyle
  2
Shaded
 70
    27
177
     3
291
     0
 70
    58
 90
        2
176
     1
 90
        2
176
     1
 90
        1
176
     1
 90
        2
176
     1
 40
0.6
176
     1
 40
30.0
176
     1
 62
     7
420
 16777215
176
     1
 90
        0
176
     1
 90
        4
176
     1
 62
     7
176
     1
 62
   257
176
     1
 90
        1
176
     1
 90
        1
176
     1
 40
1.0
176
     1
 90
        8
176
     1
 62
   257
176
     1
 40
1.0
176
     1
 90
        1
176
     1
 90
        6
176
     1
 90
        2
176
     1
 62
     8
420
  7895160
176
     1
 90
        3
176
     1
 90
        0
176
     1
 90
        0
176
     1
290
     0
176
     1
 90
        5
176
     1
 40
0.0
176
     1
 90
        0
176
     1
290
     0
176
     1
290
     1
176
     1
290
     1
176
     1
290
     0
176
     1
290
     0
176
     1
290
     0
176
     1
290
     0
176
     1
290
     0
176
     1
290
     0
176
     1
 90
       50
176
     1
 40
0.0
176
     1
 40
1.0
176
     1
 90
        0
176
     1
 62
    18
420
        0
176
     1
 90
       50
176
     1
 90
        3
176
     1
 62
     5
420
      255
176
     1
290
     0
176
     1
 90
       50
176
     1
 90
       50
176
     1
 90
       50
176
     1
290
     0
176
     1
 90
       50
176
     1
 62
   256
176
     0
 40
1.0
176
     0
 90
        2
176
     1
  1
strokes_ogs.tif
176
     1
290
     0
176
     1
 40
1.0
176
     1
 40
1.0
176
     1
  0
VISUALSTYLE
  5
3D
102
{ACAD_REACTORS
330
29
102
}
330
29
100
AcDbVisualStyle
  2
Shaded with edges
 70
    26
177
     3
291
     0
 70
    58
 90
        2
176
     1
 90
        2
176
     1
 90
        1
176
     1
 90
        2
176
     1
 40
0.6
176
     1
 40
30.0
176
     1
 62
     7
420
 16777215
176
     1
 90
        1
176
     1
 90
        2
176
     1
 62
     7
176
     1
 62
   257
176
     1
 90
        2
176
     1
 90
        1
176
     1
 40
1.0
176
     1
 90
        8
176
     1
 62
   257
176
     1
 40
1.0
176
     1
 90
        1
176
     1
 90
        6
176
     1
 90
        2
176
     1
 62
     7
176
     1
 90
        3
176
     1
 90
        0
176
     1
 90
        0
176
     1
290
     0
176
     1
 90
        5
176
     1
 40
0.0
176
     1
 90
        0
176
     1
290
     0
176
     1
290
     1
176
     1
290
     1
176
     1
290
     0
176
     1
290
     0
176
     1
290
     0
176
     1
290
     0
176
     1
290
     0
176
     1
290
     0
176
     1
 90
       50
176
     1
 40
0.0
176
     1
 40
1.0
176
     1
 90
        0
176
     1
 62
    18
420
        0
176
     1
 90
       50
176
     1
 90
        3
176
     1
 62
     5
420
      255
176
     1
290
     0
176
     1
 90
       50
176
     1
 90
       50
176
     1
 90
       50
176
     1
290
     0
176
     1
 90
       50
176
     1
 62
   256
176
     0
 40
1.0
176
     0
 90
        2
176
     1
  1
strokes_ogs.tif
176
     1
290
     0
176
     1
 40
1.0
176
     1
 40
1.0
176
     1
  0
VISUALSTYLE
  5
3A
102
{ACAD_REACTORS
330
29
102
}
330
29
100
AcDbVisualStyle
  2
Shades of Gray
 70
    23
177
     3
291
     0
 70
    58
 90
        2
176
     1
 90
        2
176
     1
 90
        3
176
     1
 90
        0
176
     1
 40
0.6
176
     1
 40
30.0
176
     1
 62
     7
420
 16777215
176
     1
 90
        2
176
     1
 90
        2
176
     1
 62
     7
176
     1
 62
     7
176
     1
 90
        1
176
     1
 90
        1
176
     1
 40
40.0
176
     1
 90
        8
176
     1
 62
     7
176
     1
 40
1.0
176
     1
 90
        1
176
     1
 90
        6
176
     1
 90
        2
176
     1
 62
     7
176
     1
 90
        3
176
     1
 90
        0
176
     1
 90
        0
176
     1
290
     0
176
     1
 90
        1
176
     1
 40
0.0
176
     1
 90
        0
176
     1
290
     0
176
     1
290
     1
176
     1
290
     1
176
     1
290
     0
176
     1
290
     0
176
     1
290
     0
176
     1
290
     0
176
     1
290
     0
176
     1
290
     0
176
     1
 90
       50
176
     1
 40
0.0
176
     1
 40
1.0
176
     1
 90
        0
176
     1
 62
    18
420
        0
176
     1
 90
       50
176
     1
 90
        3
176
     1
 62
     5
420
      255
176
     1
290
     0
176
     1
 90
       50
176
     1
 90
       50
176
     1
 90
       50
176
     1
290
     0
176
     1
 90
       50
176
     1
 62
   256
176
     0
 40
1.0
176
     0
 90
        2
176
     1
  1
strokes_ogs.tif
176
     1
290
     0
176
     1
 40
1.0
176
     1
 40
1.0
176
     1
  0
VISUALSTYLE
  5
3B
102
{ACAD_REACTORS
330
29
102
}
330
29
100
AcDbVisualStyle
  2
Sketchy
 70
    24
177
     3
291
     0
 70
    58
 90
        1
176
     1
 90
        2
176
     1
 90
        2
176
     1
 90
        0
176
     1
 40
0.6
176
     1
 40
30.0
176
     1
 62
     7
420
 16777215
176
     1
 90
        2
176
     1
 90
        2
176
     1
 62
     7
176
     1
 62
     7
176
     1
 90
        1
176
     1
 90
        1
176
     1
 40
40.0
176
     1
 90
       11
176
     1
 62
     7
176
     1
 40
1.0
176
     1
 90
        1
176
     1
 90
        6
176
     1
 90
        2
176
     1
 62
     7
176
     1
 90
        6
176
     1
 90
        0
176
     1
 90
        0
176
     1
290
     0
176
     1
 90
        1
176
     1
 40
0.0
176
     1
 90
        0
176
     1
290
     0
176
     1
290
     1
176
     1
290
     1
176
     1
290
     0
176
     1
290
     0
176
     1
290
     0
176
     1
290
     0
176
     1
290
     0
176
     1
290
     0
176
     1
 90
       50
176
     1
 40
0.0
176
     1
 40
1.0
176
     1
 90
        0
176
     1
 62
    18
420
        0
176
     1
 90
       50
176
     1
 90
        3
176
     1
 62
     5
420
      255
176
     1
290
     0
176
     1
 90
       50
176
     1
 90
       50
176
     1
 90
       50
176
     1
290
     0
176
     1
 90
       50
176
     1
 62
   256
176
     0
 40
1.0
176
     0
 90
        2
176
     1
  1
strokes_ogs.tif
176
     1
290
     0
176
     1
 40
1.0
176
     1
 40
1.0
176
     1
  0
VISUALSTYLE
  5
36
102
{ACAD_REACTORS
330
29
102
}
330
29
100
AcDbVisualStyle
  2
Thicken
 70
    13
177
     3
291
     1
 70
    58
 90
        2
176
     1
 90
        2
176
     1
 90
        0
176
     1
 90
        0
176
     1
 40
0.6
176
     1
 40
30.0
176
     1
 62
     7
420
 16777215
176
     1
 90
        1
176
     1
 90
        4
176
     1
 62
     7
176
     1
 62
   257
176
     1
 90
        1
176
     1
 90
        1
176
     1
 40
1.0
176
     1
 90
       12
176
     1
 62
     7
176
     1
 40
1.0
176
     1
 90
        1
176
     1
 90
        6
176
     1
 90
        2
176
     1
 62
     7
176
     1
 90
        5
176
     1
 90
        0
176
     1
 90
        0
176
     1
290
     0
176
     1
 90
        1
176
     1
 40
0.0
176
     1
 90
        0
176
     1
290
     0
176
     1
290
     1
176
     1
290
     1
176
     1
290
     0
176
     1
290
     0
176
     1
290
     0
176
     1
290
     0
176
     1
290
     0
176
     1
290
     0
176
     1
 90
       50
176
     1
 40
0.0
176
     1
 40
1.0
176
     1
 90
        0
176
     1
 62
    18
420
        0
176
     1
 90
       50
176
     1
 90
        3
176
     1
 62
     5
420
      255
176
     1
290
     0
176
     1
 90
       50
176
     1
 90
       50
176
     1
 90
       50
176
     1
290
     0
176
     1
 90
       50
176
     1
 62
   256
176
     0
 40
1.0
176
     0
 90
        2
176
     1
  1
strokes_ogs.tif
176
     1
290
     0
176
     1
 40
1.0
176
     1
 40
1.0
176
     1
  0
VISUALSTYLE
  5
30
102
{ACAD_REACTORS
330
29
102
}
330
29
100
AcDbVisualStyle
  2
Wireframe
 70
     5
177
     3
291
     0
 70
    58
 90
        0
176
     1
 90
        2
176
     1
 90
        0
176
     1
 90
        0
176
     1
 40
0.6
176
     1
 40
30.0
176
     1
 62
     7
420
 16777215
176
     1
 90
        1
176
     1
 90
        4
176
     1
 62
     7
176
     1
 62
   257
176
     1
 90
        1
176
     1
 90
        1
176
     1
 40
1.0
176
     1
 90
        0
176
     1
 62
   257
176
     1
 40
1.0
176
     1
 90
        1
176
     1
 90
        6
176
     1
 90
        2
176
     1
 62
     7
176
     1
 90
        3
176
     1
 90
        0
176
     1
 90
        0
176
     1
290
     0
176
     1
 90
        1
176
     1
 40
0.0
176
     1
 90
        0
176
     1
290
     0
176
     1
290
     1
176
     1
290
     1
176
     1
290
     0
176
     1
290
     0
176
     1
290
     0
176
     1
290
     0
176
     1
290
     0
176
     1
290
     0
176
     1
 90
       50
176
     1
 40
0.0
176
     1
 40
1.0
176
     1
 90
        0
176
     1
 62
    18
420
        0
176
     1
 90
       50
176
     1
 90
        3
176
     1
 62
     5
420
      255
176
     1
290
     0
176
     1
 90
       50
176
     1
 90
       50
176
     1
 90
       50
176
     1
290
     0
176
     1
 90
       50
176
     1
 62
   256
176
     0
 40
1.0
176
     0
 90
        2
176
     1
  1
strokes_ogs.tif
176
     1
290
     0
176
     1
 40
1.0
176
     1
 40
1.0
176
     1
  0
VISUALSTYLE
  5
3C
102
{ACAD_REACTORS
330
29
102
}
330
29
100
AcDbVisualStyle
  2
X-Ray
 70
    25
177
     3
291
     0
 70
    58
 90
        2
176
     1
 90
        2
176
     1
 90
        1
176
     1
 90
        1
176
     1
 40
0.5
176
     1
 40
30.0
176
     1
 62
     7
420
 16777215
176
     1
 90
        1
176
     1
 90
        0
176
     1
 62
     7
176
     1
 62
   257
176
     1
 90
        1
176
     1
 90
        1
176
     1
 40
1.0
176
     1
 90
        8
176
     1
 62
     7
176
     1
 40
1.0
176
     1
 90
        1
176
     1
 90
        6
176
     1
 90
        2
176
     1
 62
     7
176
     1
 90
        3
176
     1
 90
        0
176
     1
 90
        0
176
     1
290
     0
176
     1
 90
       13
176
     1
 40
0.0
176
     1
 90
        0
176
     1
290
     0
176
     1
290
     1
176
     1
290
     1
176
     1
290
     0
176
     1
290
     0
176
     1
290
     0
176
     1
290
     0
176
     1
290
     0
176
     1
290
     0
176
     1
 90
       50
176
     1
 40
0.0
176
     1
 40
1.0
176
     1
 90
        0
176
     1
 62
    18
420
        0
176
     1
 90
       50
176
     1
 90
        3
176
     1
 62
     5
420
      255
176
     1
290
     0
176
     1
 90
       50
176
     1
 90
       50
176
     1
 90
       50
176
     1
290
     0
176
     1
 90
       50
176
     1
 62
   256
176
     0
 40
1.0
176
     0
 90
        2
176
     1
  1
strokes_ogs.tif
176
     1
290
     0
176
     1
 40
1.0
176
     1
 40
1.0
176
     1
  0
DICTIONARYVAR
  5
170
102
{ACAD_REACTORS
330
16B
102
}
330
16B
100
DictionaryVariables
280
     0
  1
1:1
  0
DICTIONARYVAR
  5
16D
102
{ACAD_REACTORS
330
16B
102
}
330
16B
100
DictionaryVariables
280
     0
  1
STANDARD
  0
DICTIONARYVAR
  5
16C
102
{ACAD_REACTORS
330
16B
102
}
330
16B
100
DictionaryVariables
280
     0
  1
STANDARD
  0
DICTIONARYVAR
  5
16E
102
{ACAD_REACTORS
330
16B
102
}
330
16B
100
DictionaryVariables
280
     0
  1
Imperial24
  0
DICTIONARYVAR
  5
16F
102
{ACAD_REACTORS
330
16B
102
}
330
16B
100
DictionaryVariables
280
     0
  1
Imperial24
  0
DICTIONARY
  5
1A
330
19
100
AcDbDictionary
280
     1
281
     1
  3
BUMPTILE
360
1C
  3
DIFFUSETILE
360
1B
  3
OPACITYTILE
360
1F
  3
REFLECTIONTILE
360
1E
  3
REFRACTIONTILE
360
20
  3
SPECULARTILE
360
1D
  0
DICTIONARY
  5
12
330
11
100
AcDbDictionary
280
     1
281
     1
  3
BUMPTILE
360
14
  3
DIFFUSETILE
360
13
  3
OPACITYTILE
360
17
  3
REFLECTIONTILE
360
16
  3
REFRACTIONTILE
360
18
  3
SPECULARTILE
360
15
  0
DICTIONARY
  5
22
330
21
100
AcDbDictionary
280
     1
281
     1
  3
BUMPTILE
360
24
  3
DIFFUSETILE
360
23
  3
OPACITYTILE
360
27
  3
REFLECTIONTILE
360
26
  3
REFRACTIONTILE
360
28
  3
SPECULARTILE
360
25
  0
DICTIONARY
  5
171
330
65
100
AcDbDictionary
280
     1
281
     1
  3
ACAD_ROUNDTRIP_2008_TABLESTYLE_CELLSTYLEMAP
360
172
  0
XRECORD
  5
1C
102
{ACAD_REACTORS
330
1A
102
}
330
1A
100
AcDbXrecord
280
     1
270
     1
271
     1
  0
XRECORD
  5
1B
102
{ACAD_REACTORS
330
1A
102
}
330
1A
100
AcDbXrecord
280
     1
270
     1
271
     1
  0
XRECORD
  5
1F
102
{ACAD_REACTORS
330
1A
102
}
330
1A
100
AcDbXrecord
280
     1
270
     1
271
     1
  0
XRECORD
  5
1E
102
{ACAD_REACTORS
330
1A
102
}
330
1A
100
AcDbXrecord
280
     1
270
     1
271
     1
  0
XRECORD
  5
20
102
{ACAD_REACTORS
330
1A
102
}
330
1A
100
AcDbXrecord
280
     1
270
     1
271
     1
  0
XRECORD
  5
1D
102
{ACAD_REACTORS
330
1A
102
}
330
1A
100
AcDbXrecord
280
     1
270
     1
271
     1
  0
XRECORD
  5
14
102
{ACAD_REACTORS
330
12
102
}
330
12
100
AcDbXrecord
280
     1
270
     1
271
     1
  0
XRECORD
  5
13
102
{ACAD_REACTORS
330
12
102
}
330
12
100
AcDbXrecord
280
     1
270
     1
271
     1
  0
XRECORD
  5
17
102
{ACAD_REACTORS
330
12
102
}
330
12
100
AcDbXrecord
280
     1
270
     1
271
     1
  0
XRECORD
  5
16
102
{ACAD_REACTORS
330
12
102
}
330
12
100
AcDbXrecord
280
     1
270
     1
271
     1
  0
XRECORD
  5
18
102
{ACAD_REACTORS
330
12
102
}
330
12
100
AcDbXrecord
280
     1
270
     1
271
     1
  0
XRECORD
  5
15
102
{ACAD_REACTORS
330
12
102
}
330
12
100
AcDbXrecord
280
     1
270
     1
271
     1
  0
XRECORD
  5
24
102
{ACAD_REACTORS
330
22
102
}
330
22
100
AcDbXrecord
280
     1
270
     1
271
     1
  0
XRECORD
  5
23
102
{ACAD_REACTORS
330
22
102
}
330
22
100
AcDbXrecord
280
     1
270
     1
271
     1
  0
XRECORD
  5
27
102
{ACAD_REACTORS
330
22
102
}
330
22
100
AcDbXrecord
280
     1
270
     1
271
     1
  0
XRECORD
  5
26
102
{ACAD_REACTORS
330
22
102
}
330
22
100
AcDbXrecord
280
     1
270
     1
271
     1
  0
XRECORD
  5
28
102
{ACAD_REACTORS
330
22
102
}
330
22
100
AcDbXrecord
280
     1
270
     1
271
     1
  0
XRECORD
  5
25
102
{ACAD_REACTORS
330
22
102
}
330
22
100
AcDbXrecord
280
     1
270
     1
271
     1
  0
CELLSTYLEMAP
  5
172
102
{ACAD_REACTORS
330
171
102
}
330
171
100
AcDbCellStyleMap
 90
        3
300
CELLSTYLE
  1
TABLEFORMAT_BEGIN
 90
        5
170
     1
 91
        0
 92
    32768
 62
   257
 93
        1
300
CONTENTFORMAT
  1
CONTENTFORMAT_BEGIN
 90
        0
 91
        0
 92
      512
 93
        0
300

 40
0.0
140
1.0
 94
        5
 62
     0
340
55
144
0.25
309
CONTENTFORMAT_END
171
     0
 94
        0
309
TABLEFORMAT_END
  1
CELLSTYLE_BEGIN
 90
        1
 91
        1
300
_TITLE
309
CELLSTYLE_END
300
CELLSTYLE
  1
TABLEFORMAT_BEGIN
 90
        5
170
     1
 91
        0
 92
        0
 62
   257
 93
        1
300
CONTENTFORMAT
  1
CONTENTFORMAT_BEGIN
 90
        0
 91
        0
 92
      512
 93
        0
300

 40
0.0
140
1.0
 94
        5
 62
     0
340
55
144
0.18
309
CONTENTFORMAT_END
171
     0
 94
        0
309
TABLEFORMAT_END
  1
CELLSTYLE_BEGIN
 90
        2
 91
        1
300
_HEADER
309
CELLSTYLE_END
300
CELLSTYLE
  1
TABLEFORMAT_BEGIN
 90
        5
170
     1
 91
        0
 92
        0
 62
   257
 93
        1
300
CONTENTFORMAT
  1
CONTENTFORMAT_BEGIN
 90
        0
 91
        0
 92
      512
 93
        0
300

 40
0.0
140
1.0
 94
        2
 62
     0
340
55
144
0.18
309
CONTENTFORMAT_END
171
     0
 94
        0
309
TABLEFORMAT_END
  1
CELLSTYLE_BEGIN
 90
        3
 91
        2
300
_DATA
309
CELLSTYLE_END
  0
ENDSEC
  0
EOF
