  0
SECTION
  2
HEADER
  9
$ACADVER
  1
AC1032
  9
$ACADMAINTVER
 90
      228
  9
$DWGCODEPAGE
  3
ANSI_1252
  9
$REQUIREDVERSIONS
160
                 0
  9
$INSBASE
 10
0.0
 20
0.0
 30
0.0
  9
$EXTMIN
 10
1.000000000000000E+20
 20
1.000000000000000E+20
 30
1.000000000000000E+20
  9
$EXTMAX
 10
-1.000000000000000E+20
 20
-1.000000000000000E+20
 30
-1.000000000000000E+20
  9
$LIMMIN
 10
0.0
 20
0.0
  9
$LIMMAX
 10
12.0
 20
9.0
  9
$ORTHOMODE
 70
     0
  9
$REGENMODE
 70
     1
  9
$FILLMODE
 70
     1
  9
$QTEXTMODE
 70
     0
  9
$MIRRTEXT
 70
     0
  9
$LTSCALE
 40
1.0
  9
$ATTMODE
 70
     1
  9
$TEXTSIZE
 40
0.2
  9
$TRACEWID
 40
0.05
  9
$TEXTSTYLE
  7
Standard
  9
$CLAYER
  8
0
  9
$CELTYPE
  6
ByLayer
  9
$CECOLOR
 62
   256
  9
$CELTSCALE
 40
1.0
  9
$DISPSILH
 70
     0
  9
$DIMSCALE
 40
1.0
  9
$DIMASZ
 40
0.18
  9
$DIMEXO
 40
0.0625
  9
$DIMDLI
 40
0.38
  9
$DIMRND
 40
0.0
  9
$DIMDLE
 40
0.0
  9
$DIMEXE
 40
0.18
  9
$DIMTP
 40
0.0
  9
$DIMTM
 40
0.0
  9
$DIMTXT
 40
0.18
  9
$DIMCEN
 40
0.09
  9
$DIMTSZ
 40
0.0
  9
$DIMTOL
 70
     0
  9
$DIMLIM
 70
     0
  9
$DIMTIH
 70
     1
  9
$DIMTOH
 70
     1
  9
$DIMSE1
 70
     0
  9
$DIMSE2
 70
     0
  9
$DIMTAD
 70
     0
  9
$DIMZIN
 70
     0
  9
$DIMBLK
  1

  9
$DIMASO
 70
     1
  9
$DIMSHO
 70
     1
  9
$DIMPOST
  1

  9
$DIMAPOST
  1

  9
$DIMALT
 70
     0
  9
$DIMALTD
 70
     2
  9
$DIMALTF
 40
25.4
  9
$DIMLFAC
 40
1.0
  9
$DIMTOFL
 70
     0
  9
$DIMTVP
 40
0.0
  9
$DIMTIX
 70
     0
  9
$DIMSOXD
 70
     0
  9
$DIMSAH
 70
     0
  9
$DIMBLK1
  1

  9
$DIMBLK2
  1

  9
$DIMSTYLE
  2
Standard
  9
$DIMCLRD
 70
     0
  9
$DIMCLRE
 70
     0
  9
$DIMCLRT
 70
     0
  9
$DIMTFAC
 40
1.0
  9
$DIMGAP
 40
0.09
  9
$DIMJUST
 70
     0
  9
$DIMSD1
 70
     0
  9
$DIMSD2
 70
     0
  9
$DIMTOLJ
 70
     1
  9
$DIMTZIN
 70
     0
  9
$DIMALTZ
 70
     0
  9
$DIMALTTZ
 70
     0
  9
$DIMUPT
 70
     0
  9
$DIMDEC
 70
     4
  9
$DIMTDEC
 70
     4
  9
$DIMALTU
 70
     2
  9
$DIMALTTD
 70
     2
  9
$DIMTXSTY
  7
Standard
  9
$DIMAUNIT
 70
     0
  9
$DIMADEC
 70
     0
  9
$DIMALTRND
 40
0.0
  9
$DIMAZIN
 70
     0
  9
$DIMDSEP
 70
    46
  9
$DIMATFIT
 70
     3
  9
$DIMFRAC
 70
     0
  9
$DIMLDRBLK
  1

  9
$DIMLUNIT
 70
     2
  9
$DIMLWD
 70
    -2
  9
$DIMLWE
 70
    -2
  9
$DIMTMOVE
 70
     0
  9
$DIMFXL
 40
1.0
  9
$DIMFXLON
 70
     0
  9
$DIMJOGANG
 40
0.7853981633974483
  9
$DIMTFILL
 70
     0
  9
$DIMTFILLCLR
 70
     0
  9
$DIMARCSYM
 70
     0
  9
$DIMLTYPE
  6

  9
$DIMLTEX1
  6

  9
$DIMLTEX2
  6

  9
$DIMTXTDIRECTION
 70
     0
  9
$LUNITS
 70
     2
  9
$LUPREC
 70
     4
  9
$SKETCHINC
 40
0.1
  9
$FILLETRAD
 40
0.0
  9
$AUNITS
 70
     0
  9
$AUPREC
 70
     0
  9
$MENU
  1
.
  9
$ELEVATION
 40
0.0
  9
$PELEVATION
 40
0.0
  9
$THICKNESS
 40
0.0
  9
$LIMCHECK
 70
     0
  9
$CHAMFERA
 40
0.0
  9
$CHAMFERB
 40
0.0
  9
$CHAMFERC
 40
0.0
  9
$CHAMFERD
 40
0.0
  9
$SKPOLY
 70
     0
  9
$TDCREATE
 40
2460532.434722222
  9
$TDUCREATE
 40
2460532.393055556
  9
$TDUPDATE
 40
2460532.434722222
  9
$TDUUPDATE
 40
2460532.393055556
  9
$TDINDWG
 40
0.0000000000
  9
$TDUSRTIMER
 40
0.0000000000
  9
$USRTIMER
 70
     1
  9
$ANGBASE
 50
0.0
  9
$ANGDIR
 70
     0
  9
$PDMODE
 70
     0
  9
$PDSIZE
 40
0.0
  9
$PLINEWID
 40
0.0
  9
$SPLFRAME
 70
     0
  9
$SPLINETYPE
 70
     6
  9
$SPLINESEGS
 70
     8
  9
$HANDSEED
  5
194
  9
$SURFTAB1
 70
     6
  9
$SURFTAB2
 70
     6
  9
$SURFTYPE
 70
     6
  9
$SURFU
 70
     6
  9
$SURFV
 70
     6
  9
$UCSBASE
  2

  9
$UCSNAME
  2

  9
$UCSORG
 10
0.0
 20
0.0
 30
0.0
  9
$UCSXDIR
 10
1.0
 20
0.0
 30
0.0
  9
$UCSYDIR
 10
0.0
 20
1.0
 30
0.0
  9
$UCSORTHOREF
  2

  9
$UCSORTHOVIEW
 70
     0
  9
$UCSORGTOP
 10
0.0
 20
0.0
 30
0.0
  9
$UCSORGBOTTOM
 10
0.0
 20
0.0
 30
0.0
  9
$UCSORGLEFT
 10
0.0
 20
0.0
 30
0.0
  9
$UCSORGRIGHT
 10
0.0
 20
0.0
 30
0.0
  9
$UCSORGFRONT
 10
0.0
 20
0.0
 30
0.0
  9
$UCSORGBACK
 10
0.0
 20
0.0
 30
0.0
  9
$PUCSBASE
  2

  9
$PUCSNAME
  2

  9
$PUCSORG
 10
0.0
 20
0.0
 30
0.0
  9
$PUCSXDIR
 10
1.0
 20
0.0
 30
0.0
  9
$PUCSYDIR
 10
0.0
 20
1.0
 30
0.0
  9
$PUCSORTHOREF
  2

  9
$PUCSORTHOVIEW
 70
     0
  9
$PUCSORGTOP
 10
0.0
 20
0.0
 30
0.0
  9
$PUCSORGBOTTOM
 10
0.0
 20
0.0
 30
0.0
  9
$PUCSORGLEFT
 10
0.0
 20
0.0
 30
0.0
  9
$PUCSORGRIGHT
 10
0.0
 20
0.0
 30
0.0
  9
$PUCSORGFRONT
 10
0.0
 20
0.0
 30
0.0
  9
$PUCSORGBACK
 10
0.0
 20
0.0
 30
0.0
  9
$USERI1
 70
     0
  9
$USERI2
 70
     0
  9
$USERI3
 70
     0
  9
$USERI4
 70
     0
  9
$USERI5
 70
     0
  9
$USERR1
 40
0.0
  9
$USERR2
 40
0.0
  9
$USERR3
 40
0.0
  9
$USERR4
 40
0.0
  9
$USERR5
 40
0.0
  9
$WORLDVIEW
 70
     1
  9
$SHADEDGE
 70
     3
  9
$SHADEDIF
 70
    70
  9
$TILEMODE
 70
     1
  9
$MAXACTVP
 70
    64
  9
$PINSBASE
 10
0.0
 20
0.0
 30
0.0
  9
$PLIMCHECK
 70
     0
  9
$PEXTMIN
 10
1.000000000000000E+20
 20
1.000000000000000E+20
 30
1.000000000000000E+20
  9
$PEXTMAX
 10
-1.000000000000000E+20
 20
-1.000000000000000E+20
 30
-1.000000000000000E+20
  9
$PLIMMIN
 10
0.0
 20
0.0
  9
$PLIMMAX
 10
12.0
 20
9.0
  9
$UNITMODE
 70
     0
  9
$VISRETAIN
 70
     1
  9
$PLINEGEN
 70
     0
  9
$PSLTSCALE
 70
     1
  9
$TREEDEPTH
 70
  3020
  9
$CMLSTYLE
  2
Standard
  9
$CMLJUST
 70
     0
  9
$CMLSCALE
 40
1.0
  9
$PROXYGRAPHICS
 70
     1
  9
$MEASUREMENT
 70
     0
  9
$CELWEIGHT
370
    -1
  9
$ENDCAPS
280
     0
  9
$JOINSTYLE
280
     0
  9
$LWDISPLAY
290
     1
  9
$INSUNITS
 70
     4
  9
$HYPERLINKBASE
  1

  9
$STYLESHEET
  1

  9
$XEDIT
290
     1
  9
$CEPSNTYPE
380
     0
  9
$PSTYLEMODE
290
     1
  9
$FINGERPRINTGUID
  2
{0075B352-12BB-2C4D-8169-B03CC10E0AAF}
  9
$VERSIONGUID
  2
{2F261834-5636-FF4C-B420-BAC80E7D9153}
  9
$EXTNAMES
290
     1
  9
$PSVPSCALE
 40
0.0
  9
$OLESTARTUP
290
     0
  9
$SORTENTS
280
   127
  9
$INDEXCTL
280
     0
  9
$HIDETEXT
280
     1
  9
$XCLIPFRAME
280
     2
  9
$HALOGAP
280
     0
  9
$OBSCOLOR
 70
   257
  9
$OBSLTYPE
280
     0
  9
$INTERSECTIONDISPLAY
280
     0
  9
$INTERSECTIONCOLOR
 70
   257
  9
$DIMASSOC
280
     2
  9
$PROJECTNAME
  1

  9
$CAMERADISPLAY
290
     0
  9
$LENSLENGTH
 40
50.0
  9
$CAMERAHEIGHT
 40
0.0
  9
$STEPSPERSEC
 40
2.0
  9
$STEPSIZE
 40
6.0
  9
$3DDWFPREC
 40
2.0
  9
$PSOLWIDTH
 40
0.25
  9
$PSOLHEIGHT
 40
4.0
  9
$LOFTANG1
 40
1.570796326794896
  9
$LOFTANG2
 40
1.570796326794896
  9
$LOFTMAG1
 40
0.0
  9
$LOFTMAG2
 40
0.0
  9
$LOFTPARAM
 70
     7
  9
$LOFTNORMALS
280
     1
  9
$LATITUDE
 40
37.795
  9
$LONGITUDE
 40
-122.394
  9
$NORTHDIRECTION
 40
0.0
  9
$TIMEZONE
 70
 -8000
  9
$LIGHTGLYPHDISPLAY
280
     1
  9
$TILEMODELIGHTSYNCH
280
     1
  9
$CMATERIAL
347
11
  9
$SOLIDHIST
280
     0
  9
$SHOWHIST
280
     1
  9
$DWFFRAME
280
     2
  9
$DGNFRAME
280
     0
  9
$REALWORLDSCALE
290
     1
  9
$INTERFERECOLOR
 62
     1
  9
$INTERFEREOBJVS
345
33
  9
$INTERFEREVPVS
346
30
  9
$CSHADOW
280
     0
  9
$SHADOWPLANELOCATION
 40
0.0
  0
ENDSEC
  0
SECTION
  2
CLASSES
  0
CLASS
  1
ACDBDICTIONARYWDFLT
  2
AcDbDictionaryWithDefault
  3
ObjectDBX Classes
 90
        0
 91
        1
280
     0
281
     0
  0
CLASS
  1
MATERIAL
  2
AcDbMaterial
  3
ObjectDBX Classes
 90
     1153
 91
        3
280
     0
281
     0
  0
CLASS
  1
VISUALSTYLE
  2
AcDbVisualStyle
  3
ObjectDBX Classes
 90
     4095
 91
       24
280
     0
281
     0
  0
CLASS
  1
SCALE
  2
AcDbScale
  3
ObjectDBX Classes
 90
     1153
 91
       17
280
     0
281
     0
  0
CLASS
  1
TABLESTYLE
  2
AcDbTableStyle
  3
ObjectDBX Classes
 90
     4095
 91
        1
280
     0
281
     0
  0
CLASS
  1
MLEADERSTYLE
  2
AcDbMLeaderStyle
  3
ACDB_MLEADERSTYLE_CLASS
 90
     4095
 91
        1
280
     0
281
     0
  0
CLASS
  1
ACDBSECTIONVIEWSTYLE
  2
AcDbSectionViewStyle
  3
ObjectDBX Classes
 90
     1025
 91
        1
280
     0
281
     0
  0
CLASS
  1
ACDBDETAILVIEWSTYLE
  2
AcDbDetailViewStyle
  3
ObjectDBX Classes
 90
     1025
 91
        1
280
     0
281
     0
  0
CLASS
  1
DICTIONARYVAR
  2
AcDbDictionaryVar
  3
ObjectDBX Classes
 90
        0
 91
        5
280
     0
281
     0
  0
CLASS
  1
CELLSTYLEMAP
  2
AcDbCellStyleMap
  3
ObjectDBX Classes
 90
     1152
 91
        1
280
     0
281
     0
  0
ENDSEC
  0
SECTION
  2
TABLES
  0
TABLE
  2
VPORT
  5
8
330
0
100
AcDbSymbolTable
 70
     1
  0
VPORT
  5
57
330
8
100
AcDbSymbolTableRecord
100
AcDbViewportTableRecord
  2
*Active
 70
     0
 10
0.0
 20
0.0
 11
1.0
 21
1.0
 12
0.0
 22
0.0
 13
0.0
 23
0.0
 14
1.0
 24
1.0
 15
0.0
 25
0.0
 16
0.0
 26
0.0
 36
1.0
 17
104.9999970067687
 27
-148.5000119155985
 37
0.0
 40
302.940024307821
 41
0.7070706301791173
 42
50.0
 43
0.0
 44
0.0
 50
0.0
 51
0.0
 71
     0
 72
   100
 73
     1
 74
     1
 75
     0
 76
     0
 77
     0
 78
     0
281
     0
 65
     1
110
0.0
120
0.0
130
0.0
111
1.0
121
0.0
131
0.0
112
0.0
122
1.0
132
0.0
 79
     0
146
0.0
 60
     3
 61
     5
292
     1
282
     1
141
0.0
142
0.0
 63
   250
421
  3355443
  0
ENDTAB
  0
TABLE
  2
LTYPE
  5
5
330
0
100
AcDbSymbolTable
 70
     1
  0
LTYPE
  5
5B
330
5
100
AcDbSymbolTableRecord
100
AcDbLinetypeTableRecord
  2
ByBlock
 70
     0
  3

 72
    65
 73
     0
 40
0.0
  0
LTYPE
  5
5C
330
5
100
AcDbSymbolTableRecord
100
AcDbLinetypeTableRecord
  2
ByLayer
 70
     0
  3

 72
    65
 73
     0
 40
0.0
  0
LTYPE
  5
5D
330
5
100
AcDbSymbolTableRecord
100
AcDbLinetypeTableRecord
  2
Continuous
 70
     0
  3
Solid line
 72
    65
 73
     0
 40
0.0
  0
ENDTAB
  0
TABLE
  2
LAYER
  5
2
330
0
100
AcDbSymbolTable
 70
     2
  0
LAYER
  5
54
330
2
100
AcDbSymbolTableRecord
100
AcDbLayerTableRecord
  2
0
 70
     0
 62
     7
  6
Continuous
370
    -3
390
F
347
21
348
0
  0
LAYER
  5
78
330
2
100
AcDbSymbolTableRecord
100
AcDbLayerTableRecord
  2
Layer 1
 70
     0
 62
     7
  6
Continuous
370
     0
390
F
347
21
348
0
  0
ENDTAB
  0
TABLE
  2
STYLE
  5
3
330
0
100
AcDbSymbolTable
 70
     2
  0
STYLE
  5
55
330
3
100
AcDbSymbolTableRecord
100
AcDbTextStyleTableRecord
  2
Standard
 70
     0
 40
0.0
 41
1.0
 50
0.0
 71
     0
 42
0.2
  3
txt
  4

  0
STYLE
  5
5A
330
3
100
AcDbSymbolTableRecord
100
AcDbTextStyleTableRecord
  2
Annotative
 70
     0
 40
0.0
 41
1.0
 50
0.0
 71
     0
 42
0.2
  3
txt
  4

1001
AcadAnnotative
1000
AnnotativeData
1002
{
1070
     1
1070
     1
1002
}
  0
ENDTAB
  0
TABLE
  2
VIEW
  5
6
330
0
100
AcDbSymbolTable
 70
     0
  0
ENDTAB
  0
TABLE
  2
UCS
  5
7
330
0
100
AcDbSymbolTable
 70
     0
  0
ENDTAB
  0
TABLE
  2
APPID
  5
9
330
0
100
AcDbSymbolTable
 70
     2
  0
APPID
  5
56
330
9
100
AcDbSymbolTableRecord
100
AcDbRegAppTableRecord
  2
ACAD
 70
     0
  0
APPID
  5
5E
330
9
100
AcDbSymbolTableRecord
100
AcDbRegAppTableRecord
  2
AcadAnnotative
 70
     0
  0
ENDTAB
  0
TABLE
  2
DIMSTYLE
  5
A
330
0
100
AcDbSymbolTable
 70
     2
100
AcDbDimStyleTable
 71
     0
  0
DIMSTYLE
105
58
330
A
100
AcDbSymbolTableRecord
100
AcDbDimStyleTableRecord
  2
Standard
 70
     0
340
55
  0
DIMSTYLE
105
59
330
A
100
AcDbSymbolTableRecord
100
AcDbDimStyleTableRecord
  2
Annotative
 70
     0
340
55
1001
AcadAnnotative
1000
AnnotativeData
1002
{
1070
     1
1070
     1
1002
}
  0
ENDTAB
  0
TABLE
  2
BLOCK_RECORD
  5
1
330
0
100
AcDbSymbolTable
 70
     2
  0
BLOCK_RECORD
  5
70
330
1
100
AcDbSymbolTableRecord
100
AcDbBlockTableRecord
  2
*Model_Space
340
73
 70
     0
280
     1
281
     0
  0
BLOCK_RECORD
  5
6C
330
1
100
AcDbSymbolTableRecord
100
AcDbBlockTableRecord
  2
*Paper_Space
340
6F
 70
     0
280
     1
281
     0
  0
BLOCK_RECORD
  5
74
330
1
100
AcDbSymbolTableRecord
100
AcDbBlockTableRecord
  2
*Paper_Space0
340
77
 70
     0
280
     1
281
     0
  0
BLOCK_RECORD
  5
81
330
1
100
AcDbSymbolTableRecord
100
AcDbBlockTableRecord
  2
Block_0
340
0
102
{BLKREFS
331
82
102
}
 70
     0
280
     1
281
     0
  0
ENDTAB
  0
ENDSEC
  0
SECTION
  2
BLOCKS
  0
BLOCK
  5
71
330
70
100
AcDbEntity
  8
0
100
AcDbBlockBegin
  2
*Model_Space
 70
     0
 10
0.0
 20
0.0
 30
0.0
  3
*Model_Space
  1

  0
ENDBLK
  5
72
330
70
100
AcDbEntity
  8
0
100
AcDbBlockEnd
  0
BLOCK
  5
6D
330
6C
100
AcDbEntity
 67
     1
  8
0
100
AcDbBlockBegin
  2
*Paper_Space
 70
     0
 10
0.0
 20
0.0
 30
0.0
  3
*Paper_Space
  1

  0
ENDBLK
  5
6E
330
6C
100
AcDbEntity
 67
     1
  8
0
100
AcDbBlockEnd
  0
BLOCK
  5
75
330
74
100
AcDbEntity
 67
     1
  8
0
100
AcDbBlockBegin
  2
*Paper_Space0
 70
     0
 10
0.0
 20
0.0
 30
0.0
  3
*Paper_Space0
  1

  0
ENDBLK
  5
76
330
74
100
AcDbEntity
 67
     1
  8
0
100
AcDbBlockEnd
  0
BLOCK
  5
83
330
81
100
AcDbEntity
  8
0
100
AcDbBlockBegin
  2
Block_0
 70
     0
 10
0.0
 20
0.0
 30
0.0
  3
Block_0
  1

  0
LINE
  5
85
330
81
100
AcDbEntity
  8
Layer 1
 62
    18
420
   460294
370
    18
100
AcDbLine
 10
73.22271473017043
 20
-172.7970834126457
 30
0.0
 11
166.3227147301705
 21
-172.7970834126457
 31
0.0
  0
SPLINE
  5
86
330
81
100
AcDbEntity
  8
Layer 1
 62
    18
420
   460294
370
    18
100
AcDbSpline
210
0.0
220
0.0
230
1.0
 70
     8
 71
     3
 72
     8
 73
     4
 74
     0
 42
0.0000000001
 43
0.0000000001
 40
0.0
 40
0.0
 40
0.0
 40
0.0
 40
1.0
 40
1.0
 40
1.0
 40
1.0
 10
166.3227147301705
 20
-172.7970834126457
 30
0.0
 10
166.4884001551201
 20
-172.7970834126457
 30
0.0
 10
166.6227147301702
 20
-172.6627688375944
 30
0.0
 10
166.6227147301702
 20
-172.4970834126461
 30
0.0
  0
LINE
  5
87
330
81
100
AcDbEntity
  8
Layer 1
 62
    18
420
   460294
370
    18
100
AcDbLine
 10
166.6227147301702
 20
-172.4970834126461
 30
0.0
 11
166.6227147301702
 21
-167.3175726199453
 31
0.0
  0
SPLINE
  5
88
330
81
100
AcDbEntity
  8
Layer 1
 62
    18
420
   460294
370
    18
100
AcDbSpline
210
0.0
220
0.0
230
1.0
 70
     8
 71
     3
 72
     8
 73
     4
 74
     0
 42
0.0000000001
 43
0.0000000001
 40
0.0
 40
0.0
 40
0.0
 40
0.0
 40
1.0
 40
1.0
 40
1.0
 40
1.0
 10
166.6227147301715
 20
-167.3175726199453
 30
0.0
 10
166.6227147301715
 20
-167.2244056099529
 30
0.0
 10
166.5794291966238
 20
-167.1365262875744
 30
0.0
 10
166.5055686171452
 20
-167.0797397878583
 30
0.0
  0
SPLINE
  5
89
330
81
100
AcDbEntity
  8
Layer 1
 62
    18
420
   460294
370
    18
100
AcDbSpline
210
0.0
220
0.0
230
1.0
 70
     8
 71
     3
 72
     8
 73
     4
 74
     0
 42
0.0000000001
 43
0.0000000001
 40
0.0
 40
0.0
 40
0.0
 40
0.0
 40
1.0
 40
1.0
 40
1.0
 40
1.0
 10
165.6801194565663
 20
-164.2427491619939
 30
0.0
 10
165.30723641058
 20
-165.26723691091
 30
0.0
 10
165.6412547007686
 20
-166.4152261553325
 30
0.0
 10
166.5055686170939
 20
-167.07973978778
 30
0.0
  0
LINE
  5
8A
330
81
100
AcDbEntity
  8
Layer 1
 62
    18
420
   460294
370
    18
100
AcDbLine
 10
165.6801194565714
 20
-164.2427491620452
 30
0.0
 11
165.9096705040713
 21
-163.6120628425458
 31
0.0
  0
SPLINE
  5
8B
330
81
100
AcDbEntity
  8
Layer 1
 62
    18
420
   460294
370
    18
100
AcDbSpline
210
0.0
220
0.0
230
1.0
 70
     8
 71
     3
 72
     8
 73
     4
 74
     0
 42
0.0000000001
 43
0.0000000001
 40
0.0
 40
0.0
 40
0.0
 40
0.0
 40
1.0
 40
1.0
 40
1.0
 40
1.0
 10
165.9096705040058
 20
-163.6120628425458
 30
0.0
 10
165.9463281124892
 20
-163.5113468909893
 30
0.0
 10
165.9264698190728
 20
-163.3987249125859
 30
0.0
 10
165.8575760506933
 20
-163.3166205166241
 30
0.0
  0
LINE
  5
8C
330
81
100
AcDbEntity
  8
Layer 1
 62
    18
420
   460294
370
    18
100
AcDbLine
 10
165.8575760507704
 20
-163.316620516646
 30
0.0
 11
165.7048176761712
 21
-163.1345701749456
 31
0.0
  0
SPLINE
  5
8D
330
81
100
AcDbEntity
  8
Layer 1
 62
    18
420
   460294
370
    18
100
AcDbSpline
210
0.0
220
0.0
230
1.0
 70
     8
 71
     3
 72
    11
 73
     7
 74
     0
 42
0.0000000001
 43
0.0000000001
 40
0.0
 40
0.0
 40
0.0
 40
0.0
 40
1.0
 40
1.0
 40
1.0
 40
2.0
 40
2.0
 40
2.0
 40
2.0
 10
166.8538843407772
 20
-162.1703887603415
 30
0.0
 10
166.587632995098
 20
-161.8530827626394
 30
0.0
 10
166.1145662988697
 20
-161.8116947896601
 30
0.0
 10
165.7972603011664
 20
-162.0779461353393
 30
0.0
 10
165.4799543034643
 20
-162.3441974810185
 30
0.0
 10
165.4385663304856
 20
-162.8172641772474
 30
0.0
 10
165.7048176761648
 20
-163.1345701749494
 30
0.0
  0
LINE
  5
8E
330
81
100
AcDbEntity
  8
Layer 1
 62
    18
420
   460294
370
    18
100
AcDbLine
 10
166.8538843407708
 20
-162.1703887603454
 30
0.0
 11
167.5633131146712
 21
-163.0158530502459
 31
0.0
  0
SPLINE
  5
8F
330
81
100
AcDbEntity
  8
Layer 1
 62
    18
420
   460294
370
    18
100
AcDbSpline
210
0.0
220
0.0
230
1.0
 70
     8
 71
     3
 72
     8
 73
     4
 74
     0
 42
0.0000000001
 43
0.0000000001
 40
0.0
 40
0.0
 40
0.0
 40
0.0
 40
1.0
 40
1.0
 40
1.0
 40
1.0
 10
167.6154075679247
 20
-163.3112953762202
 30
0.0
 10
167.6520651764401
 20
-163.2105794246445
 30
0.0
 10
167.632206883034
 20
-163.0979574462077
 30
0.0
 10
167.5633131146456
 20
-163.0158530502177
 30
0.0
  0
LINE
  5
90
330
81
100
AcDbEntity
  8
Layer 1
 62
    18
420
   460294
370
    18
100
AcDbLine
 10
167.6154075679709
 20
-163.3112953762458
 30
0.0
 11
167.0896583877705
 21
-164.7557793769453
 31
0.0
  0
SPLINE
  5
91
330
81
100
AcDbEntity
  8
Layer 1
 62
    18
420
   460294
370
    18
100
AcDbSpline
210
0.0
220
0.0
230
1.0
 70
     8
 71
     3
 72
    11
 73
     7
 74
     0
 42
0.0000000001
 43
0.0000000001
 40
0.0
 40
0.0
 40
0.0
 40
0.0
 40
1.0
 40
1.0
 40
1.0
 40
2.0
 40
2.0
 40
2.0
 40
2.0
 10
167.0896583877577
 20
-164.7557793769466
 30
0.0
 10
166.9007658784235
 20
-165.2747572809501
 30
0.0
 10
167.1683529611688
 20
-165.8485996318243
 30
0.0
 10
167.6873308651723
 20
-166.0374921411586
 30
0.0
 10
167.7467130401133
 20
-166.0591054852877
 30
0.0
 10
167.8080102426634
 20
-166.0750413761794
 30
0.0
 10
167.8704000251466
 20
-166.0850859959797
 30
0.0
  0
SPLINE
  5
92
330
81
100
AcDbEntity
  8
Layer 1
 62
    18
420
   460294
370
    18
100
AcDbSpline
210
0.0
220
0.0
230
1.0
 70
     8
 71
     3
 72
     8
 73
     4
 74
     0
 42
0.0000000001
 43
0.0000000001
 40
0.0
 40
0.0
 40
0.0
 40
0.0
 40
1.0
 40
1.0
 40
1.0
 40
1.0
 10
168.1227147301712
 20
-166.3812719386457
 30
0.0
 10
168.1227147301712
 20
-166.2339936044056
 30
0.0
 10
168.0158059327376
 20
-166.1084960320333
 30
0.0
 10
167.8704000251954
 20
-166.0850859959701
 30
0.0
  0
SPLINE
  5
93
330
81
100
AcDbEntity
  8
Layer 1
 62
    18
420
   460294
370
    18
100
AcDbSpline
210
0.0
220
0.0
230
1.0
 70
     8
 71
     3
 72
     8
 73
     4
 74
     0
 42
0.0000000001
 43
0.0000000001
 40
0.0
 40
0.0
 40
0.0
 40
0.0
 40
1.0
 40
1.0
 40
1.0
 40
1.0
 10
167.8227147301702
 20
-174.5970834126452
 30
0.0
 10
167.9884001551198
 20
-174.5970834126452
 30
0.0
 10
168.1227147301712
 20
-174.4627688375951
 30
0.0
 10
168.1227147301712
 20
-174.2970834126455
 30
0.0
  0
LINE
  5
94
330
81
100
AcDbEntity
  8
Layer 1
 62
    18
420
   460294
370
    18
100
AcDbLine
 10
167.8227147301702
 20
-174.5970834126452
 30
0.0
 11
71.72271473017069
 21
-174.5970834126452
 31
0.0
  0
SPLINE
  5
95
330
81
100
AcDbEntity
  8
Layer 1
 62
    18
420
   460294
370
    18
100
AcDbSpline
210
0.0
220
0.0
230
1.0
 70
     8
 71
     3
 72
     8
 73
     4
 74
     0
 42
0.0000000001
 43
0.0000000001
 40
0.0
 40
0.0
 40
0.0
 40
0.0
 40
1.0
 40
1.0
 40
1.0
 40
1.0
 10
71.42271473017068
 20
-174.2970834126455
 30
0.0
 10
71.42271473017068
 20
-174.4627688375951
 30
0.0
 10
71.55702930522109
 20
-174.5970834126465
 30
0.0
 10
71.72271473017069
 20
-174.5970834126465
 30
0.0
  0
LINE
  5
96
330
81
100
AcDbEntity
  8
Layer 1
 62
    18
420
   460294
370
    18
100
AcDbLine
 10
71.42271473017068
 20
-174.2970834126455
 30
0.0
 11
71.42271473017068
 21
-166.3812719386457
 31
0.0
  0
SPLINE
  5
97
330
81
100
AcDbEntity
  8
Layer 1
 62
    18
420
   460294
370
    18
100
AcDbSpline
210
0.0
220
0.0
230
1.0
 70
     8
 71
     3
 72
     8
 73
     4
 74
     0
 42
0.0000000001
 43
0.0000000001
 40
0.0
 40
0.0
 40
0.0
 40
0.0
 40
1.0
 40
1.0
 40
1.0
 40
1.0
 10
71.6750294351455
 20
-166.0850859959701
 30
0.0
 10
71.52962352760494
 20
-166.1084960320333
 30
0.0
 10
71.42271473017068
 20
-166.2339936044062
 30
0.0
 10
71.42271473017068
 20
-166.3812719386457
 30
0.0
  0
SPLINE
  5
98
330
81
100
AcDbEntity
  8
Layer 1
 62
    18
420
   460294
370
    18
100
AcDbSpline
210
0.0
220
0.0
230
1.0
 70
     8
 71
     3
 72
    11
 73
     7
 74
     0
 42
0.0000000001
 43
0.0000000001
 40
0.0
 40
0.0
 40
0.0
 40
0.0
 40
1.0
 40
1.0
 40
1.0
 40
2.0
 40
2.0
 40
2.0
 40
2.0
 10
71.67502943509545
 20
-166.0850859959797
 30
0.0
 10
72.22029269930299
 20
-165.9972997918637
 30
0.0
 10
72.59115113142157
 20
-165.4841118011284
 30
0.0
 10
72.5033649273049
 20
-164.9388485369209
 30
0.0
 10
72.49332030750526
 20
-164.8764587544389
 30
0.0
 10
72.47738441661354
 20
-164.8151615518876
 30
0.0
 10
72.45577107248441
 20
-164.7557793769466
 30
0.0
  0
LINE
  5
99
330
81
100
AcDbEntity
  8
Layer 1
 62
    18
420
   460294
370
    18
100
AcDbLine
 10
72.45577107247157
 20
-164.7557793769453
 30
0.0
 11
71.93002189237134
 21
-163.3112953762458
 31
0.0
  0
SPLINE
  5
9A
330
81
100
AcDbEntity
  8
Layer 1
 62
    18
420
   460294
370
    18
100
AcDbSpline
210
0.0
220
0.0
230
1.0
 70
     8
 71
     3
 72
     8
 73
     4
 74
     0
 42
0.0000000001
 43
0.0000000001
 40
0.0
 40
0.0
 40
0.0
 40
0.0
 40
1.0
 40
1.0
 40
1.0
 40
1.0
 10
71.98211634559654
 20
-163.0158530502177
 30
0.0
 10
71.91322257720713
 20
-163.0979574462077
 30
0.0
 10
71.89336428380198
 20
-163.2105794246445
 30
0.0
 10
71.93002189231615
 20
-163.3112953762202
 30
0.0
  0
LINE
  5
9B
330
81
100
AcDbEntity
  8
Layer 1
 62
    18
420
   460294
370
    18
100
AcDbLine
 10
71.98211634567098
 20
-163.0158530502459
 30
0.0
 11
72.69154511947132
 21
-162.1703887603454
 31
0.0
  0
SPLINE
  5
9C
330
81
100
AcDbEntity
  8
Layer 1
 62
    18
420
   460294
370
    18
100
AcDbSpline
210
0.0
220
0.0
230
1.0
 70
     8
 71
     3
 72
    11
 73
     7
 74
     0
 42
0.0000000001
 43
0.0000000001
 40
0.0
 40
0.0
 40
0.0
 40
0.0
 40
1.0
 40
1.0
 40
1.0
 40
2.0
 40
2.0
 40
2.0
 40
2.0
 10
73.84061178417709
 20
-163.1345701749494
 30
0.0
 10
74.10686312985662
 20
-162.8172641772474
 30
0.0
 10
74.06547515687785
 20
-162.3441974810185
 30
0.0
 10
73.74816915917453
 20
-162.0779461353393
 30
0.0
 10
73.43086316147214
 20
-161.8116947896601
 30
0.0
 10
72.95779646524422
 20
-161.8530827626394
 30
0.0
 10
72.691545119565
 20
-162.1703887603415
 30
0.0
  0
LINE
  5
9D
330
81
100
AcDbEntity
  8
Layer 1
 62
    18
420
   460294
370
    18
100
AcDbLine
 10
73.84061178417098
 20
-163.1345701749456
 30
0.0
 11
73.68785340957057
 21
-163.316620516646
 31
0.0
  0
SPLINE
  5
9E
330
81
100
AcDbEntity
  8
Layer 1
 62
    18
420
   460294
370
    18
100
AcDbSpline
210
0.0
220
0.0
230
1.0
 70
     8
 71
     3
 72
     8
 73
     4
 74
     0
 42
0.0000000001
 43
0.0000000001
 40
0.0
 40
0.0
 40
0.0
 40
0.0
 40
1.0
 40
1.0
 40
1.0
 40
1.0
 10
73.68785340954875
 20
-163.3166205166241
 30
0.0
 10
73.61895964116929
 20
-163.3987249125859
 30
0.0
 10
73.59910134775292
 20
-163.5113468909893
 30
0.0
 10
73.63575895623629
 20
-163.6120628425458
 30
0.0
  0
LINE
  5
9F
330
81
100
AcDbEntity
  8
Layer 1
 62
    18
420
   460294
370
    18
100
AcDbLine
 10
73.63575895627093
 20
-163.6120628425458
 30
0.0
 11
73.86531000367071
 21
-164.2427491620452
 31
0.0
  0
SPLINE
  5
A0
330
81
100
AcDbEntity
  8
Layer 1
 62
    18
420
   460294
370
    18
100
AcDbSpline
210
0.0
220
0.0
230
1.0
 70
     8
 71
     3
 72
     8
 73
     4
 74
     0
 42
0.0000000001
 43
0.0000000001
 40
0.0
 40
0.0
 40
0.0
 40
0.0
 40
1.0
 40
1.0
 40
1.0
 40
1.0
 10
73.03986084314823
 20
-167.07973978778
 30
0.0
 10
73.90417475947512
 20
-166.4152261553312
 30
0.0
 10
74.23819304966215
 20
-165.2672369109061
 30
0.0
 10
73.86531000367455
 20
-164.2427491619901
 30
0.0
  0
SPLINE
  5
A1
330
81
100
AcDbEntity
  8
Layer 1
 62
    18
420
   460294
370
    18
100
AcDbSpline
210
0.0
220
0.0
230
1.0
 70
     8
 71
     3
 72
     8
 73
     4
 74
     0
 42
0.0000000001
 43
0.0000000001
 40
0.0
 40
0.0
 40
0.0
 40
0.0
 40
1.0
 40
1.0
 40
1.0
 40
1.0
 10
73.039860843197
 20
-167.0797397878583
 30
0.0
 10
72.96600026371837
 20
-167.1365262875744
 30
0.0
 10
72.92271473017073
 20
-167.2244056099529
 30
0.0
 10
72.92271473017073
 20
-167.3175726199453
 30
0.0
  0
LINE
  5
A2
330
81
100
AcDbEntity
  8
Layer 1
 62
    18
420
   460294
370
    18
100
AcDbLine
 10
72.92271473017073
 20
-167.3175726199453
 30
0.0
 11
72.92271473017073
 21
-172.4970834126461
 31
0.0
  0
SPLINE
  5
A3
330
81
100
AcDbEntity
  8
Layer 1
 62
    18
420
   460294
370
    18
100
AcDbSpline
210
0.0
220
0.0
230
1.0
 70
     8
 71
     3
 72
     8
 73
     4
 74
     0
 42
0.0000000001
 43
0.0000000001
 40
0.0
 40
0.0
 40
0.0
 40
0.0
 40
1.0
 40
1.0
 40
1.0
 40
1.0
 10
72.92271473017073
 20
-172.4970834126461
 30
0.0
 10
72.92271473017073
 20
-172.6627688375944
 30
0.0
 10
73.0570293052221
 20
-172.7970834126457
 30
0.0
 10
73.22271473017043
 20
-172.7970834126457
 30
0.0
  0
LINE
  5
A4
330
81
100
AcDbEntity
  8
Layer 1
 62
    18
420
   460294
370
    18
100
AcDbLine
 10
168.1227147301712
 20
-166.3812719386457
 30
0.0
 11
168.1227147301712
 21
-174.2970834126455
 31
0.0
  0
LINE
  5
A5
330
81
100
AcDbEntity
  8
Layer 1
 62
    18
420
   460294
370
    18
100
AcDbLine
 10
71.17271470787115
 20
-147.0022429438456
 30
0.0
 11
71.67271470787149
 21
-147.0022429438456
 31
0.0
  0
SPLINE
  5
A6
330
81
100
AcDbEntity
  8
Layer 1
 62
    18
420
   460294
370
    18
100
AcDbSpline
210
0.0
220
0.0
230
1.0
 70
     8
 71
     3
 72
     8
 73
     4
 74
     0
 42
0.0000000001
 43
0.0000000001
 40
0.0
 40
0.0
 40
0.0
 40
0.0
 40
1.0
 40
1.0
 40
1.0
 40
1.0
 10
71.92271470877068
 20
-147.2522429429611
 30
0.0
 10
71.92271470828299
 20
-147.1141717555039
 30
0.0
 10
71.81078589534448
 20
-147.0022429433572
 30
0.0
 10
71.6727147078869
 20
-147.0022429438456
 30
0.0
  0
LINE
  5
A7
330
81
100
AcDbEntity
  8
Layer 1
 62
    18
420
   460294
370
    18
100
AcDbLine
 10
71.92271470877068
 20
-147.2522429429457
 30
0.0
 11
71.92271470887078
 21
-148.7522429429458
 31
0.0
  0
SPLINE
  5
A8
330
81
100
AcDbEntity
  8
Layer 1
 62
    18
420
   460294
370
    18
100
AcDbSpline
210
0.0
220
0.0
230
1.0
 70
     8
 71
     3
 72
     8
 73
     4
 74
     0
 42
0.0000000001
 43
0.0000000001
 40
0.0
 40
0.0
 40
0.0
 40
0.0
 40
1.0
 40
1.0
 40
1.0
 40
1.0
 10
71.67271470975425
 20
-149.0022429438453
 30
0.0
 10
71.81078589721214
 20
-149.0022429433582
 30
0.0
 10
71.92271470935849
 20
-148.8903141304204
 30
0.0
 10
71.92271470887078
 20
-148.7522429429634
 30
0.0
  0
LINE
  5
A9
330
81
100
AcDbEntity
  8
Layer 1
 62
    18
420
   460294
370
    18
100
AcDbLine
 10
71.67271470967081
 20
-149.0022429438453
 30
0.0
 11
71.17271470967049
 21
-149.0022429438453
 31
0.0
  0
LINE
  5
AA
330
81
100
AcDbEntity
  8
Layer 1
 62
    18
420
   460294
370
    18
100
AcDbLine
 10
71.17271470967049
 20
-149.0022429438453
 30
0.0
 11
71.1727147097709
 21
-151.8022429438454
 31
0.0
  0
LINE
  5
AB
330
81
100
AcDbEntity
  8
Layer 1
 62
    18
420
   460294
370
    18
100
AcDbLine
 10
71.1727147097709
 20
-151.8022429438454
 30
0.0
 11
71.6727147097706
 21
-151.8022429438454
 31
0.0
  0
SPLINE
  5
AC
330
81
100
AcDbEntity
  8
Layer 1
 62
    18
420
   460294
370
    18
100
AcDbSpline
210
0.0
220
0.0
230
1.0
 70
     8
 71
     3
 72
     8
 73
     4
 74
     0
 42
0.0000000001
 43
0.0000000001
 40
0.0
 40
0.0
 40
0.0
 40
0.0
 40
1.0
 40
1.0
 40
1.0
 40
1.0
 10
71.9227147106714
 20
-152.0522429429606
 30
0.0
 10
71.92271471018242
 20
-151.9141717555031
 30
0.0
 10
71.81078589724423
 20
-151.802242943357
 30
0.0
 10
71.67271470978632
 20
-151.8022429438454
 30
0.0
  0
LINE
  5
AD
330
81
100
AcDbEntity
  8
Layer 1
 62
    18
420
   460294
370
    18
100
AcDbLine
 10
71.9227147106714
 20
-152.0522429429453
 30
0.0
 11
71.9227147106714
 21
-153.5522429429456
 31
0.0
  0
SPLINE
  5
AE
330
81
100
AcDbEntity
  8
Layer 1
 62
    18
420
   460294
370
    18
100
AcDbSpline
210
0.0
220
0.0
230
1.0
 70
     8
 71
     3
 72
     8
 73
     4
 74
     0
 42
0.0000000001
 43
0.0000000001
 40
0.0
 40
0.0
 40
0.0
 40
0.0
 40
1.0
 40
1.0
 40
1.0
 40
1.0
 10
71.67271471155484
 20
-153.8022429438455
 30
0.0
 10
71.81078589901371
 20
-153.8022429433571
 30
0.0
 10
71.92271471115908
 20
-153.6903141304192
 30
0.0
 10
71.9227147106714
 20
-153.552242942961
 30
0.0
  0
LINE
  5
AF
330
81
100
AcDbEntity
  8
Layer 1
 62
    18
420
   460294
370
    18
100
AcDbLine
 10
71.67271471157185
 20
-153.8022429438455
 30
0.0
 11
71.17271471157119
 21
-153.8022429438455
 31
0.0
  0
LINE
  5
B0
330
81
100
AcDbEntity
  8
Layer 1
 62
    18
420
   460294
370
    18
100
AcDbLine
 10
71.17271471157119
 20
-153.8022429438455
 30
0.0
 11
71.1727147116713
 21
-156.6022429438456
 31
0.0
  0
LINE
  5
B1
330
81
100
AcDbEntity
  8
Layer 1
 62
    18
420
   460294
370
    18
100
AcDbLine
 10
71.1727147116713
 20
-156.6022429438456
 30
0.0
 11
71.67271471167035
 21
-156.6022429438456
 31
0.0
  0
SPLINE
  5
B2
330
81
100
AcDbEntity
  8
Layer 1
 62
    18
420
   460294
370
    18
100
AcDbSpline
210
0.0
220
0.0
230
1.0
 70
     8
 71
     3
 72
     8
 73
     4
 74
     0
 42
0.0000000001
 43
0.0000000001
 40
0.0
 40
0.0
 40
0.0
 40
0.0
 40
1.0
 40
1.0
 40
1.0
 40
1.0
 10
71.92271471247072
 20
-156.8522429429608
 30
0.0
 10
71.92271471198303
 20
-156.7141717555032
 30
0.0
 10
71.81078589904451
 20
-156.6022429433572
 30
0.0
 10
71.67271471158693
 20
-156.6022429438456
 30
0.0
  0
LINE
  5
B3
330
81
100
AcDbEntity
  8
Layer 1
 62
    18
420
   460294
370
    18
100
AcDbLine
 10
71.92271471247072
 20
-156.8522429429454
 30
0.0
 11
71.92271471257082
 21
-158.3522429429451
 31
0.0
  0
SPLINE
  5
B4
330
81
100
AcDbEntity
  8
Layer 1
 62
    18
420
   460294
370
    18
100
AcDbSpline
210
0.0
220
0.0
230
1.0
 70
     8
 71
     3
 72
     8
 73
     4
 74
     0
 42
0.0000000001
 43
0.0000000001
 40
0.0
 40
0.0
 40
0.0
 40
0.0
 40
1.0
 40
1.0
 40
1.0
 40
1.0
 10
71.67271471345556
 20
-158.6022429438456
 30
0.0
 10
71.81078590091281
 20
-158.6022429433567
 30
0.0
 10
71.9227147130598
 20
-158.4903141304188
 30
0.0
 10
71.92271471257082
 20
-158.3522429429612
 30
0.0
  0
LINE
  5
B5
330
81
100
AcDbEntity
  8
Layer 1
 62
    18
420
   460294
370
    18
100
AcDbLine
 10
71.67271471347096
 20
-158.6022429438456
 30
0.0
 11
71.17271471347063
 21
-158.6022429438456
 31
0.0
  0
LINE
  5
B6
330
81
100
AcDbEntity
  8
Layer 1
 62
    18
420
   460294
370
    18
100
AcDbLine
 10
71.17271471347063
 20
-158.6022429438456
 30
0.0
 11
71.17271471347063
 21
-162.1022429438454
 31
0.0
  0
LINE
  5
B7
330
81
100
AcDbEntity
  8
Layer 1
 62
    18
420
   460294
370
    18
100
AcDbLine
 10
71.17271471347063
 20
-162.1022429438454
 30
0.0
 11
72.21360779347134
 21
-164.8814172584456
 31
0.0
  0
SPLINE
  5
B8
330
81
100
AcDbEntity
  8
Layer 1
 62
    18
420
   460294
370
    18
100
AcDbSpline
210
0.0
220
0.0
230
1.0
 70
     8
 71
     3
 72
    11
 73
     7
 74
     0
 42
0.0000000001
 43
0.0000000001
 40
0.0
 40
0.0
 40
0.0
 40
0.0
 40
1.0
 40
1.0
 40
1.0
 40
2.0
 40
2.0
 40
2.0
 40
2.0
 10
71.37078226335856
 20
-166.0970834117417
 30
0.0
 10
71.86783853820355
 20
-166.0970834099815
 30
0.0
 10
72.27078226192793
 20
-165.6941396834041
 30
0.0
 10
72.27078226016743
 20
-165.1970834085585
 30
0.0
 10
72.27078225978594
 20
-165.0892864365811
 30
0.0
 10
72.25141652182348
 20
-164.9823661922133
 30
0.0
 10
72.21360779350985
 20
-164.881417258436
 30
0.0
  0
LINE
  5
B9
330
81
100
AcDbEntity
  8
Layer 1
 62
    18
420
   460294
370
    18
100
AcDbLine
 10
71.37078226337172
 20
-166.0970834117455
 30
0.0
 11
71.17271472767142
 21
-166.0970834117455
 31
0.0
  0
LINE
  5
BA
330
81
100
AcDbEntity
  8
Layer 1
 62
    18
420
   460294
370
    18
100
AcDbLine
 10
71.17271472767142
 20
-166.0970834117455
 30
0.0
 11
71.17271472767142
 21
-169.4233447418456
 31
0.0
  0
SPLINE
  5
BB
330
81
100
AcDbEntity
  8
Layer 1
 62
    18
420
   460294
370
    18
100
AcDbSpline
210
0.0
220
0.0
230
1.0
 70
     8
 71
     3
 72
     8
 73
     4
 74
     0
 42
0.0000000001
 43
0.0000000001
 40
0.0
 40
0.0
 40
0.0
 40
0.0
 40
1.0
 40
1.0
 40
1.0
 40
1.0
 10
71.16419618447237
 20
-169.488049503165
 30
0.0
 10
71.16985081655103
 20
-169.4669461286532
 30
0.0
 10
71.17271472774842
 20
-169.4451925627993
 30
0.0
 10
71.17271472767142
 20
-169.423344741861
 30
0.0
  0
LINE
  5
BC
330
81
100
AcDbEntity
  8
Layer 1
 62
    18
420
   460294
370
    18
100
AcDbLine
 10
71.16419618447077
 20
-169.4880495031457
 30
0.0
 11
70.93123327447088
 21
-170.3574789321456
 31
0.0
  0
SPLINE
  5
BD
330
81
100
AcDbEntity
  8
Layer 1
 62
    18
420
   460294
370
    18
100
AcDbSpline
210
0.0
220
0.0
230
1.0
 70
     8
 71
     3
 72
    11
 73
     7
 74
     0
 42
0.0000000001
 43
0.0000000001
 40
0.0
 40
0.0
 40
0.0
 40
0.0
 40
1.0
 40
1.0
 40
1.0
 40
2.0
 40
2.0
 40
2.0
 40
2.0
 10
70.93123327447344
 20
-170.35747893212
 30
0.0
 10
70.89549782204855
 20
-170.4908454580767
 30
0.0
 10
70.97464344488925
 20
-170.6279296969184
 30
0.0
 10
71.10800997084465
 20
-170.6636651493433
 30
0.0
 10
71.12911334577025
 20
-170.6693197815324
 30
0.0
 10
71.15086691206153
 20
-170.6721836927323
 30
0.0
 10
71.17271473342618
 20
-170.6721836925437
 30
0.0
  0
LINE
  5
BE
330
81
100
AcDbEntity
  8
Layer 1
 62
    18
420
   460294
370
    18
100
AcDbLine
 10
71.17271473347109
 20
-170.6721836925462
 30
0.0
 11
71.17271473347109
 21
-171.0221836923459
 31
0.0
  0
SPLINE
  5
BF
330
81
100
AcDbEntity
  8
Layer 1
 62
    18
420
   460294
370
    18
100
AcDbSpline
210
0.0
220
0.0
230
1.0
 70
     8
 71
     3
 72
    11
 73
     7
 74
     0
 42
0.0000000001
 43
0.0000000001
 40
0.0
 40
0.0
 40
0.0
 40
0.0
 40
1.0
 40
1.0
 40
1.0
 40
2.0
 40
2.0
 40
2.0
 40
2.0
 10
71.17271473344928
 20
-171.0221836923459
 30
0.0
 10
71.0346435459917
 20
-171.0221836889333
 30
0.0
 10
70.92271473068404
 20
-171.1341124987095
 30
0.0
 10
70.92271472727147
 20
-171.2721836861671
 30
0.0
 10
70.92271472673115
 20
-171.2940315096946
 30
0.0
 10
70.92557863814673
 20
-171.3157850781661
 30
0.0
 10
70.93123327110196
 20
-171.3368884551246
 30
0.0
  0
LINE
  5
C0
330
81
100
AcDbEntity
  8
Layer 1
 62
    18
420
   460294
370
    18
100
AcDbLine
 10
70.93123327107115
 20
-171.3368884550463
 30
0.0
 11
71.16419618967142
 21
-172.2063178817464
 31
0.0
  0
SPLINE
  5
C1
330
81
100
AcDbEntity
  8
Layer 1
 62
    18
420
   460294
370
    18
100
AcDbSpline
210
0.0
220
0.0
230
1.0
 70
     8
 71
     3
 72
     8
 73
     4
 74
     0
 42
0.0000000001
 43
0.0000000001
 40
0.0
 40
0.0
 40
0.0
 40
0.0
 40
1.0
 40
1.0
 40
1.0
 40
1.0
 10
71.17271473347109
 20
-172.2710226429894
 30
0.0
 10
71.17271473333506
 20
-172.2491748220518
 30
0.0
 10
71.16985082192463
 20
-172.2274212562254
 30
0.0
 10
71.16419618964062
 20
-172.2063178817682
 30
0.0
  0
LINE
  5
C2
330
81
100
AcDbEntity
  8
Layer 1
 62
    18
420
   460294
370
    18
100
AcDbLine
 10
71.17271473347109
 20
-172.2710226429457
 30
0.0
 11
71.17271473347109
 21
-174.3470834114457
 31
0.0
  0
SPLINE
  5
C3
330
81
100
AcDbEntity
  8
Layer 1
 62
    18
420
   460294
370
    18
100
AcDbSpline
210
0.0
220
0.0
230
1.0
 70
     8
 71
     3
 72
     8
 73
     4
 74
     0
 42
0.0000000001
 43
0.0000000001
 40
0.0
 40
0.0
 40
0.0
 40
0.0
 40
1.0
 40
1.0
 40
1.0
 40
1.0
 10
70.92271473502704
 20
-174.5970834130456
 30
0.0
 10
71.06078592248462
 20
-174.597083412187
 30
0.0
 10
71.17271473433129
 20
-174.4851545989481
 30
0.0
 10
71.17271473347109
 20
-174.3470834114893
 30
0.0
  0
SPLINE
  5
C4
330
81
100
AcDbEntity
  8
Layer 1
 62
    18
420
   460294
370
    18
100
AcDbSpline
210
0.0
220
0.0
230
1.0
 70
     8
 71
     3
 72
     8
 73
     4
 74
     0
 42
0.0000000001
 43
0.0000000001
 40
0.0
 40
0.0
 40
0.0
 40
0.0
 40
1.0
 40
1.0
 40
1.0
 40
1.0
 10
102.1727147301703
 20
-119.6970834126458
 30
0.0
 10
102.1727147301703
 20
-119.420941037731
 30
0.0
 10
101.9488571050867
 20
-119.1970834126454
 30
0.0
 10
101.6727147301709
 20
-119.1970834126454
 30
0.0
  0
LINE
  5
C5
330
81
100
AcDbEntity
  8
Layer 1
 62
    18
420
   460294
370
    18
100
AcDbLine
 10
100.4227147301717
 20
-119.1970834126454
 30
0.0
 11
101.6727147301709
 21
-119.1970834126454
 31
0.0
  0
SPLINE
  5
C6
330
81
100
AcDbEntity
  8
Layer 1
 62
    18
420
   460294
370
    18
100
AcDbSpline
210
0.0
220
0.0
230
1.0
 70
     8
 71
     3
 72
     8
 73
     4
 74
     0
 42
0.0000000001
 43
0.0000000001
 40
0.0
 40
0.0
 40
0.0
 40
0.0
 40
1.0
 40
1.0
 40
1.0
 40
1.0
 10
100.1727147301705
 20
-118.9470834126459
 30
0.0
 10
100.1727147301705
 20
-119.0851546001035
 30
0.0
 10
100.2846435427132
 20
-119.1970834126454
 30
0.0
 10
100.4227147301717
 20
-119.1970834126454
 30
0.0
  0
LINE
  5
C7
330
81
100
AcDbEntity
  8
Layer 1
 62
    18
420
   460294
370
    18
100
AcDbLine
 10
100.1727147301705
 20
-102.9919238816463
 30
0.0
 11
100.1727147301705
 21
-118.9470834126459
 31
0.0
  0
LINE
  5
C8
330
81
100
AcDbEntity
  8
Layer 1
 62
    18
420
   460294
370
    18
100
AcDbLine
 10
101.5227147301711
 20
-102.9919238816463
 30
0.0
 11
100.1727147301705
 21
-102.9919238816463
 31
0.0
  0
SPLINE
  5
C9
330
81
100
AcDbEntity
  8
Layer 1
 62
    18
420
   460294
370
    18
100
AcDbSpline
210
0.0
220
0.0
230
1.0
 70
     8
 71
     3
 72
     8
 73
     4
 74
     0
 42
0.0000000001
 43
0.0000000001
 40
0.0
 40
0.0
 40
0.0
 40
0.0
 40
1.0
 40
1.0
 40
1.0
 40
1.0
 10
101.5227147301711
 20
-102.9919238816454
 30
0.0
 10
101.6607859176287
 20
-102.9919238816454
 30
0.0
 10
101.7727147301706
 20
-102.8799950691034
 30
0.0
 10
101.7727147301706
 20
-102.7419238816452
 30
0.0
  0
LINE
  5
CA
330
81
100
AcDbEntity
  8
Layer 1
 62
    18
420
   460294
370
    18
100
AcDbLine
 10
101.7727147301706
 20
-99.9919238816453
 30
0.0
 11
101.7727147301706
 21
-102.7419238816452
 31
0.0
  0
LINE
  5
CB
330
81
100
AcDbEntity
  8
Layer 1
 62
    18
420
   460294
370
    18
100
AcDbLine
 10
104.5727147301707
 20
-99.99192388154519
 30
0.0
 11
101.7727147301706
 21
-99.9919238816453
 31
0.0
  0
LINE
  5
CC
330
81
100
AcDbEntity
  8
Layer 1
 62
    18
420
   460294
370
    18
100
AcDbLine
 10
104.5727147301707
 20
-102.7419238815457
 30
0.0
 11
104.5727147301707
 21
-99.99192388154519
 31
0.0
  0
SPLINE
  5
CD
330
81
100
AcDbEntity
  8
Layer 1
 62
    18
420
   460294
370
    18
100
AcDbSpline
210
0.0
220
0.0
230
1.0
 70
     8
 71
     3
 72
     8
 73
     4
 74
     0
 42
0.0000000001
 43
0.0000000001
 40
0.0
 40
0.0
 40
0.0
 40
0.0
 40
1.0
 40
1.0
 40
1.0
 40
1.0
 10
104.5727147301707
 20
-102.7419238815509
 30
0.0
 10
104.5727147301739
 20
-102.8799950690084
 30
0.0
 10
104.6846435427184
 20
-102.9919238815485
 30
0.0
 10
104.822714730177
 20
-102.9919238815459
 30
0.0
  0
LINE
  5
CE
330
81
100
AcDbEntity
  8
Layer 1
 62
    18
420
   460294
370
    18
100
AcDbLine
 10
118.1227147301707
 20
-102.9919238812453
 30
0.0
 11
104.8227147301709
 21
-102.9919238815459
 31
0.0
  0
SPLINE
  5
CF
330
81
100
AcDbEntity
  8
Layer 1
 62
    18
420
   460294
370
    18
100
AcDbSpline
210
0.0
220
0.0
230
1.0
 70
     8
 71
     3
 72
     8
 73
     4
 74
     0
 42
0.0000000001
 43
0.0000000001
 40
0.0
 40
0.0
 40
0.0
 40
0.0
 40
1.0
 40
1.0
 40
1.0
 40
1.0
 10
118.1227147301707
 20
-102.9919238812453
 30
0.0
 10
118.2607859176283
 20
-102.9919238812453
 30
0.0
 10
118.3727147301715
 20
-102.8799950687036
 30
0.0
 10
118.3727147301715
 20
-102.741923881246
 30
0.0
  0
LINE
  5
D0
330
81
100
AcDbEntity
  8
Layer 1
 62
    18
420
   460294
370
    18
100
AcDbLine
 10
118.3727147301702
 20
-99.99192388124551
 30
0.0
 11
118.3727147301702
 21
-102.741923881246
 31
0.0
  0
LINE
  5
D1
330
81
100
AcDbEntity
  8
Layer 1
 62
    18
420
   460294
370
    18
100
AcDbLine
 10
121.1727147301703
 20
-99.99192388124551
 30
0.0
 11
118.3727147301702
 21
-99.99192388124551
 31
0.0
  0
LINE
  5
D2
330
81
100
AcDbEntity
  8
Layer 1
 62
    18
420
   460294
370
    18
100
AcDbLine
 10
121.1727147301703
 20
-102.741923881246
 30
0.0
 11
121.1727147301703
 21
-99.99192388124551
 31
0.0
  0
SPLINE
  5
D3
330
81
100
AcDbEntity
  8
Layer 1
 62
    18
420
   460294
370
    18
100
AcDbSpline
210
0.0
220
0.0
230
1.0
 70
     8
 71
     3
 72
     8
 73
     4
 74
     0
 42
0.0000000001
 43
0.0000000001
 40
0.0
 40
0.0
 40
0.0
 40
0.0
 40
1.0
 40
1.0
 40
1.0
 40
1.0
 10
121.1727147301703
 20
-102.741923881246
 30
0.0
 10
121.1727147301703
 20
-102.8799950687036
 30
0.0
 10
121.2846435427136
 20
-102.9919238812453
 30
0.0
 10
121.4227147301711
 20
-102.9919238812453
 30
0.0
  0
LINE
  5
D4
330
81
100
AcDbEntity
  8
Layer 1
 62
    18
420
   460294
370
    18
100
AcDbLine
 10
134.7227147301707
 20
-102.9919238812453
 30
0.0
 11
121.4227147301711
 21
-102.9919238812453
 31
0.0
  0
SPLINE
  5
D5
330
81
100
AcDbEntity
  8
Layer 1
 62
    18
420
   460294
370
    18
100
AcDbSpline
210
0.0
220
0.0
230
1.0
 70
     8
 71
     3
 72
     8
 73
     4
 74
     0
 42
0.0000000001
 43
0.0000000001
 40
0.0
 40
0.0
 40
0.0
 40
0.0
 40
1.0
 40
1.0
 40
1.0
 40
1.0
 10
134.7227147301707
 20
-102.9919238812453
 30
0.0
 10
134.8607859176282
 20
-102.9919238812453
 30
0.0
 10
134.9727147301702
 20
-102.8799950687036
 30
0.0
 10
134.9727147301702
 20
-102.741923881246
 30
0.0
  0
LINE
  5
D6
330
81
100
AcDbEntity
  8
Layer 1
 62
    18
420
   460294
370
    18
100
AcDbLine
 10
134.9727147301702
 20
-99.99192388124551
 30
0.0
 11
134.9727147301702
 21
-102.741923881246
 31
0.0
  0
LINE
  5
D7
330
81
100
AcDbEntity
  8
Layer 1
 62
    18
420
   460294
370
    18
100
AcDbLine
 10
137.7727147301703
 20
-99.99192388124551
 30
0.0
 11
134.9727147301702
 21
-99.99192388124551
 31
0.0
  0
LINE
  5
D8
330
81
100
AcDbEntity
  8
Layer 1
 62
    18
420
   460294
370
    18
100
AcDbLine
 10
137.7727147301703
 20
-102.741923881246
 30
0.0
 11
137.7727147301703
 21
-99.99192388124551
 31
0.0
  0
SPLINE
  5
D9
330
81
100
AcDbEntity
  8
Layer 1
 62
    18
420
   460294
370
    18
100
AcDbSpline
210
0.0
220
0.0
230
1.0
 70
     8
 71
     3
 72
     8
 73
     4
 74
     0
 42
0.0000000001
 43
0.0000000001
 40
0.0
 40
0.0
 40
0.0
 40
0.0
 40
1.0
 40
1.0
 40
1.0
 40
1.0
 10
137.7727147301703
 20
-102.741923881246
 30
0.0
 10
137.7727147301703
 20
-102.8799950687036
 30
0.0
 10
137.8846435427135
 20
-102.9919238812453
 30
0.0
 10
138.0227147301711
 20
-102.9919238812453
 30
0.0
  0
LINE
  5
DA
330
81
100
AcDbEntity
  8
Layer 1
 62
    18
420
   460294
370
    18
100
AcDbLine
 10
139.3727147301703
 20
-102.9919238812453
 30
0.0
 11
138.0227147301711
 21
-102.9919238812453
 31
0.0
  0
LINE
  5
DB
330
81
100
AcDbEntity
  8
Layer 1
 62
    18
420
   460294
370
    18
100
AcDbLine
 10
139.3727147301703
 20
-118.9470834126459
 30
0.0
 11
139.3727147301703
 21
-102.9919238812453
 31
0.0
  0
SPLINE
  5
DC
330
81
100
AcDbEntity
  8
Layer 1
 62
    18
420
   460294
370
    18
100
AcDbSpline
210
0.0
220
0.0
230
1.0
 70
     8
 71
     3
 72
     8
 73
     4
 74
     0
 42
0.0000000001
 43
0.0000000001
 40
0.0
 40
0.0
 40
0.0
 40
0.0
 40
1.0
 40
1.0
 40
1.0
 40
1.0
 10
139.1227147301708
 20
-119.1970834126454
 30
0.0
 10
139.2607859176284
 20
-119.1970834126454
 30
0.0
 10
139.3727147301703
 20
-119.0851546001035
 30
0.0
 10
139.3727147301703
 20
-118.9470834126459
 30
0.0
  0
LINE
  5
DD
330
81
100
AcDbEntity
  8
Layer 1
 62
    18
420
   460294
370
    18
100
AcDbLine
 10
137.8727147301706
 20
-119.1970834126454
 30
0.0
 11
139.1227147301708
 21
-119.1970834126454
 31
0.0
  0
SPLINE
  5
DE
330
81
100
AcDbEntity
  8
Layer 1
 62
    18
420
   460294
370
    18
100
AcDbSpline
210
0.0
220
0.0
230
1.0
 70
     8
 71
     3
 72
     8
 73
     4
 74
     0
 42
0.0000000001
 43
0.0000000001
 40
0.0
 40
0.0
 40
0.0
 40
0.0
 40
1.0
 40
1.0
 40
1.0
 40
1.0
 10
137.8727147301706
 20
-119.1970834126454
 30
0.0
 10
137.5965723552554
 20
-119.1970834126454
 30
0.0
 10
137.3727147301703
 20
-119.420941037731
 30
0.0
 10
137.3727147301703
 20
-119.6970834126458
 30
0.0
  0
LINE
  5
DF
330
81
100
AcDbEntity
  8
Layer 1
 62
    18
420
   460294
370
    18
100
AcDbLine
 10
137.3727147301703
 20
-132.2970834126456
 30
0.0
 11
137.3727147301703
 21
-119.6970834126458
 31
0.0
  0
LINE
  5
E0
330
81
100
AcDbEntity
  8
Layer 1
 62
    18
420
   460294
370
    18
100
AcDbLine
 10
137.3727147301703
 20
-132.2970834126456
 30
0.0
 11
143.1727147301711
 21
-132.2970834126456
 31
0.0
  0
LINE
  5
E1
330
81
100
AcDbEntity
  8
Layer 1
 62
    18
420
   460294
370
    18
100
AcDbLine
 10
143.1727147301711
 20
-132.2970834126456
 30
0.0
 11
143.1727147301711
 21
-135.6970834126457
 31
0.0
  0
LINE
  5
E2
330
81
100
AcDbEntity
  8
Layer 1
 62
    18
420
   460294
370
    18
100
AcDbLine
 10
143.1727147301711
 20
-135.6970834126457
 30
0.0
 11
144.6727147301708
 21
-135.6970834126457
 31
0.0
  0
LINE
  5
E3
330
81
100
AcDbEntity
  8
Layer 1
 62
    18
420
   460294
370
    18
100
AcDbLine
 10
144.6727147301708
 20
-135.6970834126457
 30
0.0
 11
144.6727147301708
 21
-130.7970834126455
 31
0.0
  0
LINE
  5
E4
330
81
100
AcDbEntity
  8
Layer 1
 62
    18
420
   460294
370
    18
100
AcDbLine
 10
71.17271470787115
 20
-144.2022429438454
 30
0.0
 11
71.17271470787115
 21
-147.0022429438456
 31
0.0
  0
LINE
  5
E5
330
81
100
AcDbEntity
  8
Layer 1
 62
    18
420
   460294
370
    18
100
AcDbLine
 10
71.67271470787149
 20
-144.2022429438454
 30
0.0
 11
71.17271470787115
 21
-144.2022429438454
 31
0.0
  0
SPLINE
  5
E6
330
81
100
AcDbEntity
  8
Layer 1
 62
    18
420
   460294
370
    18
100
AcDbSpline
210
0.0
220
0.0
230
1.0
 70
     8
 71
     3
 72
     8
 73
     4
 74
     0
 42
0.0000000001
 43
0.0000000001
 40
0.0
 40
0.0
 40
0.0
 40
0.0
 40
1.0
 40
1.0
 40
1.0
 40
1.0
 10
71.67271470785481
 20
-144.2022429438454
 30
0.0
 10
71.81078589531367
 20
-144.2022429433571
 30
0.0
 10
71.92271470745905
 20
-144.0903141304189
 30
0.0
 10
71.92271470697136
 20
-143.9522429429613
 30
0.0
  0
LINE
  5
E7
330
81
100
AcDbEntity
  8
Layer 1
 62
    18
420
   460294
370
    18
100
AcDbLine
 10
71.92271470697136
 20
-142.4522429429456
 30
0.0
 11
71.92271470697136
 21
-143.9522429429456
 31
0.0
  0
SPLINE
  5
E8
330
81
100
AcDbEntity
  8
Layer 1
 62
    18
420
   460294
370
    18
100
AcDbSpline
210
0.0
220
0.0
230
1.0
 70
     8
 71
     3
 72
     8
 73
     4
 74
     0
 42
0.0000000001
 43
0.0000000001
 40
0.0
 40
0.0
 40
0.0
 40
0.0
 40
1.0
 40
1.0
 40
1.0
 40
1.0
 10
71.92271470697136
 20
-142.4522429429613
 30
0.0
 10
71.92271470648238
 20
-142.3141717561104
 30
0.0
 10
71.81078589449102
 20
-142.2022429442156
 30
0.0
 10
71.67271470764048
 20
-142.2022429438457
 30
0.0
  0
LINE
  5
E9
330
81
100
AcDbEntity
  8
Layer 1
 62
    18
420
   460294
370
    18
100
AcDbLine
 10
71.17271470757085
 20
-142.2022429438457
 30
0.0
 11
71.67271470757118
 21
-142.2022429438457
 31
0.0
  0
LINE
  5
EA
330
81
100
AcDbEntity
  8
Layer 1
 62
    18
420
   460294
370
    18
100
AcDbLine
 10
71.17271470747073
 20
-135.7970834124455
 30
0.0
 11
71.17271470757085
 21
-142.2022429438457
 31
0.0
  0
LINE
  5
EB
330
81
100
AcDbEntity
  8
Layer 1
 62
    18
420
   460294
370
    18
100
AcDbLine
 10
71.17271470747073
 20
-135.7970834124455
 30
0.0
 11
71.67271473137052
 21
-135.7970834124455
 31
0.0
  0
LINE
  5
EC
330
81
100
AcDbEntity
  8
Layer 1
 62
    18
420
   460294
370
    18
100
AcDbLine
 10
71.67271473137052
 20
-135.7970834124455
 30
0.0
 11
71.67271473137052
 21
-91.59708341364556
 31
0.0
  0
LINE
  5
ED
330
81
100
AcDbEntity
  8
Layer 1
 62
    18
420
   460294
370
    18
100
AcDbLine
 10
71.67271473137052
 20
-91.59708341364556
 30
0.0
 11
80.82271473067121
 21
-91.59708341344536
 31
0.0
  0
LINE
  5
EE
330
81
100
AcDbEntity
  8
Layer 1
 62
    18
420
   460294
370
    18
100
AcDbLine
 10
80.82271473067121
 20
-91.59708341344536
 30
0.0
 11
80.82271473077133
 21
-94.09708341364597
 31
0.0
  0
LINE
  5
EF
330
81
100
AcDbEntity
  8
Layer 1
 62
    18
420
   460294
370
    18
100
AcDbLine
 10
80.82271473077133
 20
-94.09708341364597
 30
0.0
 11
82.57271473087071
 21
-94.09708341364597
 31
0.0
  0
SPLINE
  5
F0
330
81
100
AcDbEntity
  8
Layer 1
 62
    18
420
   460294
370
    18
100
AcDbSpline
210
0.0
220
0.0
230
1.0
 70
     8
 71
     3
 72
    11
 73
     7
 74
     0
 42
0.0000000001
 43
0.0000000001
 40
0.0
 40
0.0
 40
0.0
 40
0.0
 40
1.0
 40
1.0
 40
1.0
 40
2.0
 40
2.0
 40
2.0
 40
2.0
 10
82.57271473087071
 20
-94.09708341364597
 30
0.0
 10
82.71078591832827
 20
-94.09708341364597
 30
0.0
 10
82.82271473087151
 20
-93.98515460110338
 30
0.0
 10
82.82271473087151
 20
-93.8470834136458
 30
0.0
 10
82.82271473087151
 20
-93.8470834136458
 30
0.0
 10
82.82271473087151
 20
-93.84708341356816
 30
0.0
 10
82.82271473087151
 20
-93.84708341356816
 30
0.0
  0
LINE
  5
F1
330
81
100
AcDbEntity
  8
Layer 1
 62
    18
420
   460294
370
    18
100
AcDbLine
 10
82.82271473077139
 20
-92.09708341354581
 30
0.0
 11
82.82271473087151
 21
-93.84708341354571
 31
0.0
  0
SPLINE
  5
F2
330
81
100
AcDbEntity
  8
Layer 1
 62
    18
420
   460294
370
    18
100
AcDbSpline
210
0.0
220
0.0
230
1.0
 70
     8
 71
     3
 72
     8
 73
     4
 74
     0
 42
0.0000000001
 43
0.0000000001
 40
0.0
 40
0.0
 40
0.0
 40
0.0
 40
1.0
 40
1.0
 40
1.0
 40
1.0
 10
83.32271473061645
 20
-91.59708341344536
 30
0.0
 10
83.04657235570129
 20
-91.59708341353102
 30
0.0
 10
82.82271473068542
 20
-91.82094103868422
 30
0.0
 10
82.82271473077139
 20
-92.0970834135997
 30
0.0
  0
LINE
  5
F3
330
81
100
AcDbEntity
  8
Layer 1
 62
    18
420
   460294
370
    18
100
AcDbLine
 10
85.12271473067105
 20
-91.59708341334525
 30
0.0
 11
83.32271473067036
 21
-91.59708341344536
 31
0.0
  0
SPLINE
  5
F4
330
81
100
AcDbEntity
  8
Layer 1
 62
    18
420
   460294
370
    18
100
AcDbSpline
210
0.0
220
0.0
230
1.0
 70
     8
 71
     3
 72
     8
 73
     4
 74
     0
 42
0.0000000001
 43
0.0000000001
 40
0.0
 40
0.0
 40
0.0
 40
0.0
 40
1.0
 40
1.0
 40
1.0
 40
1.0
 10
85.62271473077151
 20
-92.09708341319672
 30
0.0
 10
85.62271473068808
 20
-91.82094103828092
 30
0.0
 10
85.39885710553745
 20
-91.59708341326311
 30
0.0
 10
85.12271473062229
 20
-91.59708341334525
 30
0.0
  0
LINE
  5
F5
330
81
100
AcDbEntity
  8
Layer 1
 62
    18
420
   460294
370
    18
100
AcDbLine
 10
85.62271473087161
 20
-93.84708341324602
 30
0.0
 11
85.62271473077151
 21
-92.09708341324548
 31
0.0
  0
SPLINE
  5
F6
330
81
100
AcDbEntity
  8
Layer 1
 62
    18
420
   460294
370
    18
100
AcDbSpline
210
0.0
220
0.0
230
1.0
 70
     8
 71
     3
 72
    11
 73
     7
 74
     0
 42
0.0000000001
 43
0.0000000001
 40
0.0
 40
0.0
 40
0.0
 40
0.0
 40
1.0
 40
1.0
 40
1.0
 40
2.0
 40
2.0
 40
2.0
 40
2.0
 10
85.62271473087031
 20
-93.84708341322676
 30
0.0
 10
85.6227147306393
 20
-93.98515460068404
 30
0.0
 10
85.73464354299387
 20
-94.09708341341433
 30
0.0
 10
85.87271473045147
 20
-94.09708341364597
 30
0.0
 10
85.87271473045147
 20
-94.09708341364597
 30
0.0
 10
85.87271473087113
 20
-94.09708341364597
 30
0.0
 10
85.87271473087113
 20
-94.09708341364597
 30
0.0
  0
LINE
  5
F7
330
81
100
AcDbEntity
  8
Layer 1
 62
    18
420
   460294
370
    18
100
AcDbLine
 10
85.87271473087113
 20
-94.09708341364597
 30
0.0
 11
87.62271473077156
 21
-94.09708341364597
 31
0.0
  0
LINE
  5
F8
330
81
100
AcDbEntity
  8
Layer 1
 62
    18
420
   460294
370
    18
100
AcDbLine
 10
87.62271473077156
 20
-94.09708341364597
 30
0.0
 11
87.62271473077156
 21
-91.59708341334525
 31
0.0
  0
LINE
  5
F9
330
81
100
AcDbEntity
  8
Layer 1
 62
    18
420
   460294
370
    18
100
AcDbLine
 10
87.62271473077156
 20
-91.59708341334525
 30
0.0
 11
96.77271472997089
 21
-91.59708341314567
 31
0.0
  0
LINE
  5
FA
330
81
100
AcDbEntity
  8
Layer 1
 62
    18
420
   460294
370
    18
100
AcDbLine
 10
96.77271472997089
 20
-91.59708341314567
 30
0.0
 11
96.7727147301711
 21
-98.59708341534568
 31
0.0
  0
LINE
  5
FB
330
81
100
AcDbEntity
  8
Layer 1
 62
    18
420
   460294
370
    18
100
AcDbLine
 10
96.7727147301711
 20
-98.59708341534568
 30
0.0
 11
98.17271473017051
 21
-98.59708341534568
 31
0.0
  0
LINE
  5
FC
330
81
100
AcDbEntity
  8
Layer 1
 62
    18
420
   460294
370
    18
100
AcDbLine
 10
98.17271473017051
 20
-120.1970834126452
 30
0.0
 11
98.17271473017051
 21
-98.59708341534568
 31
0.0
  0
SPLINE
  5
FD
330
81
100
AcDbEntity
  8
Layer 1
 62
    18
420
   460294
370
    18
100
AcDbSpline
210
0.0
220
0.0
230
1.0
 70
     8
 71
     3
 72
     8
 73
     4
 74
     0
 42
0.0000000001
 43
0.0000000001
 40
0.0
 40
0.0
 40
0.0
 40
0.0
 40
1.0
 40
1.0
 40
1.0
 40
1.0
 10
98.17271473017051
 20
-120.1970834126452
 30
0.0
 10
98.17271473017051
 20
-120.7493681624765
 30
0.0
 10
98.6204299803396
 20
-121.1970834126459
 30
0.0
 10
99.17271473017118
 20
-121.1970834126459
 30
0.0
  0
LINE
  5
FE
330
81
100
AcDbEntity
  8
Layer 1
 62
    18
420
   460294
370
    18
100
AcDbLine
 10
100.1727147301705
 20
-121.1970834126459
 30
0.0
 11
99.17271473017118
 21
-121.1970834126459
 31
0.0
  0
LINE
  5
FF
330
81
100
AcDbEntity
  8
Layer 1
 62
    18
420
   460294
370
    18
100
AcDbLine
 10
100.1727147301705
 20
-121.1970834126459
 30
0.0
 11
100.1727147301705
 21
-130.7970834126455
 31
0.0
  0
LINE
  5
100
330
81
100
AcDbEntity
  8
Layer 1
 62
    18
420
   460294
370
    18
100
AcDbLine
 10
94.87271473017104
 20
-130.7970834126455
 30
0.0
 11
100.1727147301705
 21
-130.7970834126455
 31
0.0
  0
LINE
  5
101
330
81
100
AcDbEntity
  8
Layer 1
 62
    18
420
   460294
370
    18
100
AcDbLine
 10
94.87271473017104
 20
-135.6970834126457
 30
0.0
 11
94.87271473017104
 21
-130.7970834126455
 31
0.0
  0
LINE
  5
102
330
81
100
AcDbEntity
  8
Layer 1
 62
    18
420
   460294
370
    18
100
AcDbLine
 10
96.37271473017108
 20
-135.6970834126457
 30
0.0
 11
94.87271473017104
 21
-135.6970834126457
 31
0.0
  0
LINE
  5
103
330
81
100
AcDbEntity
  8
Layer 1
 62
    18
420
   460294
370
    18
100
AcDbLine
 10
96.37271473017108
 20
-132.2970834126456
 30
0.0
 11
96.37271473017108
 21
-135.6970834126457
 31
0.0
  0
LINE
  5
104
330
81
100
AcDbEntity
  8
Layer 1
 62
    18
420
   460294
370
    18
100
AcDbLine
 10
96.37271473017108
 20
-132.2970834126456
 30
0.0
 11
102.1727147301703
 21
-132.2970834126456
 31
0.0
  0
LINE
  5
105
330
81
100
AcDbEntity
  8
Layer 1
 62
    18
420
   460294
370
    18
100
AcDbLine
 10
102.1727147301703
 20
-119.6970834126458
 30
0.0
 11
102.1727147301703
 21
-132.2970834126456
 31
0.0
  0
LINE
  5
106
330
81
100
AcDbEntity
  8
Layer 1
 62
    18
420
   460294
370
    18
100
AcDbLine
 10
168.3727147301707
 20
-151.8022429440456
 30
0.0
 11
168.3727147301707
 21
-149.0022429440455
 31
0.0
  0
LINE
  5
107
330
81
100
AcDbEntity
  8
Layer 1
 62
    18
420
   460294
370
    18
100
AcDbLine
 10
167.8727147301704
 20
-151.8022429440456
 30
0.0
 11
168.3727147301707
 21
-151.8022429440456
 31
0.0
  0
SPLINE
  5
108
330
81
100
AcDbEntity
  8
Layer 1
 62
    18
420
   460294
370
    18
100
AcDbSpline
210
0.0
220
0.0
230
1.0
 70
     8
 71
     3
 72
     8
 73
     4
 74
     0
 42
0.0000000001
 43
0.0000000001
 40
0.0
 40
0.0
 40
0.0
 40
0.0
 40
1.0
 40
1.0
 40
1.0
 40
1.0
 10
167.8727147301704
 20
-151.8022429440456
 30
0.0
 10
167.7346435427128
 20
-151.8022429440456
 30
0.0
 10
167.6227147301709
 20
-151.9141717565875
 30
0.0
 10
167.6227147301709
 20
-152.0522429440451
 30
0.0
  0
LINE
  5
109
330
81
100
AcDbEntity
  8
Layer 1
 62
    18
420
   460294
370
    18
100
AcDbLine
 10
167.6227147301709
 20
-153.5522429440455
 30
0.0
 11
167.6227147301709
 21
-152.0522429440451
 31
0.0
  0
SPLINE
  5
10A
330
81
100
AcDbEntity
  8
Layer 1
 62
    18
420
   460294
370
    18
100
AcDbSpline
210
0.0
220
0.0
230
1.0
 70
     8
 71
     3
 72
     8
 73
     4
 74
     0
 42
0.0000000001
 43
0.0000000001
 40
0.0
 40
0.0
 40
0.0
 40
0.0
 40
1.0
 40
1.0
 40
1.0
 40
1.0
 10
167.6227147301709
 20
-153.5522429440455
 30
0.0
 10
167.6227147301709
 20
-153.6903141315037
 30
0.0
 10
167.7346435427128
 20
-153.8022429440457
 30
0.0
 10
167.8727147301704
 20
-153.8022429440457
 30
0.0
  0
LINE
  5
10B
330
81
100
AcDbEntity
  8
Layer 1
 62
    18
420
   460294
370
    18
100
AcDbLine
 10
168.3727147301707
 20
-153.8022429440457
 30
0.0
 11
167.8727147301704
 21
-153.8022429440457
 31
0.0
  0
LINE
  5
10C
330
81
100
AcDbEntity
  8
Layer 1
 62
    18
420
   460294
370
    18
100
AcDbLine
 10
168.3727147301707
 20
-156.6022429440458
 30
0.0
 11
168.3727147301707
 21
-153.8022429440457
 31
0.0
  0
LINE
  5
10D
330
81
100
AcDbEntity
  8
Layer 1
 62
    18
420
   460294
370
    18
100
AcDbLine
 10
167.8727147301704
 20
-156.6022429440458
 30
0.0
 11
168.3727147301707
 21
-156.6022429440458
 31
0.0
  0
SPLINE
  5
10E
330
81
100
AcDbEntity
  8
Layer 1
 62
    18
420
   460294
370
    18
100
AcDbSpline
210
0.0
220
0.0
230
1.0
 70
     8
 71
     3
 72
     8
 73
     4
 74
     0
 42
0.0000000001
 43
0.0000000001
 40
0.0
 40
0.0
 40
0.0
 40
0.0
 40
1.0
 40
1.0
 40
1.0
 40
1.0
 10
167.8727147301704
 20
-156.6022429440458
 30
0.0
 10
167.7346435427128
 20
-156.6022429440458
 30
0.0
 10
167.6227147301709
 20
-156.7141717565877
 30
0.0
 10
167.6227147301709
 20
-156.8522429440453
 30
0.0
  0
LINE
  5
10F
330
81
100
AcDbEntity
  8
Layer 1
 62
    18
420
   460294
370
    18
100
AcDbLine
 10
167.6227147301709
 20
-158.3522429440457
 30
0.0
 11
167.6227147301709
 21
-156.8522429440453
 31
0.0
  0
SPLINE
  5
110
330
81
100
AcDbEntity
  8
Layer 1
 62
    18
420
   460294
370
    18
100
AcDbSpline
210
0.0
220
0.0
230
1.0
 70
     8
 71
     3
 72
     8
 73
     4
 74
     0
 42
0.0000000001
 43
0.0000000001
 40
0.0
 40
0.0
 40
0.0
 40
0.0
 40
1.0
 40
1.0
 40
1.0
 40
1.0
 10
167.6227147301709
 20
-158.3522429440457
 30
0.0
 10
167.6227147301709
 20
-158.4903141315033
 30
0.0
 10
167.7346435427128
 20
-158.6022429440458
 30
0.0
 10
167.8727147301704
 20
-158.6022429440458
 30
0.0
  0
LINE
  5
111
330
81
100
AcDbEntity
  8
Layer 1
 62
    18
420
   460294
370
    18
100
AcDbLine
 10
168.3727147301707
 20
-158.6022429440458
 30
0.0
 11
167.8727147301704
 21
-158.6022429440458
 31
0.0
  0
LINE
  5
112
330
81
100
AcDbEntity
  8
Layer 1
 62
    18
420
   460294
370
    18
100
AcDbLine
 10
168.3727147301707
 20
-162.1022429440456
 30
0.0
 11
168.3727147301707
 21
-158.6022429440458
 31
0.0
  0
LINE
  5
113
330
81
100
AcDbEntity
  8
Layer 1
 62
    18
420
   460294
370
    18
100
AcDbLine
 10
167.3318216599713
 20
-164.8814172623453
 30
0.0
 11
168.3727147301707
 21
-162.1022429440456
 31
0.0
  0
SPLINE
  5
114
330
81
100
AcDbEntity
  8
Layer 1
 62
    18
420
   460294
370
    18
100
AcDbSpline
210
0.0
220
0.0
230
1.0
 70
     8
 71
     3
 72
    11
 73
     7
 74
     0
 42
0.0000000001
 43
0.0000000001
 40
0.0
 40
0.0
 40
0.0
 40
0.0
 40
1.0
 40
1.0
 40
1.0
 40
2.0
 40
2.0
 40
2.0
 40
2.0
 10
167.3318216600188
 20
-164.8814172623209
 30
0.0
 10
167.1574840591566
 20
-165.3468969517664
 30
0.0
 10
167.3935013546993
 20
-165.8655713462359
 30
0.0
 10
167.8589810441461
 20
-166.0399089470981
 30
0.0
 10
167.9599299780569
 20
-166.0777176750549
 30
0.0
 10
168.066850222494
 20
-166.0970834126382
 30
0.0
 10
168.1746471944707
 20
-166.0970834126382
 30
0.0
  0
LINE
  5
115
330
81
100
AcDbEntity
  8
Layer 1
 62
    18
420
   460294
370
    18
100
AcDbLine
 10
168.3727147301707
 20
-166.0970834126459
 30
0.0
 11
168.1746471944707
 21
-166.0970834126459
 31
0.0
  0
LINE
  5
116
330
81
100
AcDbEntity
  8
Layer 1
 62
    18
420
   460294
370
    18
100
AcDbLine
 10
168.3727147301707
 20
-169.4233447427459
 30
0.0
 11
168.3727147301707
 21
-166.0970834126459
 31
0.0
  0
SPLINE
  5
117
330
81
100
AcDbEntity
  8
Layer 1
 62
    18
420
   460294
370
    18
100
AcDbSpline
210
0.0
220
0.0
230
1.0
 70
     8
 71
     3
 72
     8
 73
     4
 74
     0
 42
0.0000000001
 43
0.0000000001
 40
0.0
 40
0.0
 40
0.0
 40
0.0
 40
1.0
 40
1.0
 40
1.0
 40
1.0
 10
168.3727147301707
 20
-169.4233447427459
 30
0.0
 10
168.3727147301707
 20
-169.4451925636835
 30
0.0
 10
168.3755786414451
 20
-169.4669461295279
 30
0.0
 10
168.3812332735982
 20
-169.4880495040203
 30
0.0
  0
LINE
  5
118
330
81
100
AcDbEntity
  8
Layer 1
 62
    18
420
   460294
370
    18
100
AcDbLine
 10
168.614196186771
 20
-170.3574789321456
 30
0.0
 11
168.3812332735713
 21
-169.4880495039452
 31
0.0
  0
SPLINE
  5
119
330
81
100
AcDbEntity
  8
Layer 1
 62
    18
420
   460294
370
    18
100
AcDbSpline
210
0.0
220
0.0
230
1.0
 70
     8
 71
     3
 72
    11
 73
     7
 74
     0
 42
0.0000000001
 43
0.0000000001
 40
0.0
 40
0.0
 40
0.0
 40
0.0
 40
1.0
 40
1.0
 40
1.0
 40
2.0
 40
2.0
 40
2.0
 40
2.0
 10
168.3727147301707
 20
-170.6721836934459
 30
0.0
 10
168.5107859176283
 20
-170.6721836934459
 30
0.0
 10
168.6227147301702
 20
-170.5602548809026
 30
0.0
 10
168.6227147301702
 20
-170.4221836934451
 30
0.0
 10
168.6227147301715
 20
-170.4003358725139
 30
0.0
 10
168.6198508188971
 20
-170.3785823066657
 30
0.0
 10
168.6141961867427
 20
-170.3574789321701
 30
0.0
  0
LINE
  5
11A
330
81
100
AcDbEntity
  8
Layer 1
 62
    18
420
   460294
370
    18
100
AcDbLine
 10
168.3727147301707
 20
-171.0221836934457
 30
0.0
 11
168.3727147301707
 21
-170.6721836934459
 31
0.0
  0
SPLINE
  5
11B
330
81
100
AcDbEntity
  8
Layer 1
 62
    18
420
   460294
370
    18
100
AcDbSpline
210
0.0
220
0.0
230
1.0
 70
     8
 71
     3
 72
    11
 73
     7
 74
     0
 42
0.0000000001
 43
0.0000000001
 40
0.0
 40
0.0
 40
0.0
 40
0.0
 40
1.0
 40
1.0
 40
1.0
 40
2.0
 40
2.0
 40
2.0
 40
2.0
 10
168.6141961867427
 20
-171.3368884547203
 30
0.0
 10
168.6499316396374
 20
-171.2035219288881
 30
0.0
 10
168.5707860172779
 20
-171.0664376897666
 30
0.0
 10
168.4374194914458
 20
-171.0307022368732
 30
0.0
 10
168.4163161169565
 20
-171.0250476047214
 30
0.0
 10
168.394562551116
 20
-171.0221836934457
 30
0.0
 10
168.372714730181
 20
-171.0221836934457
 30
0.0
  0
LINE
  5
11C
330
81
100
AcDbEntity
  8
Layer 1
 62
    18
420
   460294
370
    18
100
AcDbLine
 10
168.3812332735713
 20
-172.206317882845
 30
0.0
 11
168.6141961866709
 21
-171.336888454746
 31
0.0
  0
SPLINE
  5
11D
330
81
100
AcDbEntity
  8
Layer 1
 62
    18
420
   460294
370
    18
100
AcDbSpline
210
0.0
220
0.0
230
1.0
 70
     8
 71
     3
 72
     8
 73
     4
 74
     0
 42
0.0000000001
 43
0.0000000001
 40
0.0
 40
0.0
 40
0.0
 40
0.0
 40
1.0
 40
1.0
 40
1.0
 40
1.0
 10
168.3812332735982
 20
-172.2063178828707
 30
0.0
 10
168.3755786414451
 20
-172.2274212573625
 30
0.0
 10
168.3727147301707
 20
-172.2491748232068
 30
0.0
 10
168.3727147301707
 20
-172.2710226441457
 30
0.0
  0
LINE
  5
11E
330
81
100
AcDbEntity
  8
Layer 1
 62
    18
420
   460294
370
    18
100
AcDbLine
 10
168.3727147301707
 20
-174.3470834126457
 30
0.0
 11
168.3727147301707
 21
-172.2710226441457
 31
0.0
  0
SPLINE
  5
11F
330
81
100
AcDbEntity
  8
Layer 1
 62
    18
420
   460294
370
    18
100
AcDbSpline
210
0.0
220
0.0
230
1.0
 70
     8
 71
     3
 72
     8
 73
     4
 74
     0
 42
0.0000000001
 43
0.0000000001
 40
0.0
 40
0.0
 40
0.0
 40
0.0
 40
1.0
 40
1.0
 40
1.0
 40
1.0
 10
168.3727147301707
 20
-174.3470834126457
 30
0.0
 10
168.3727147301707
 20
-174.4851546001032
 30
0.0
 10
168.4846435427127
 20
-174.5970834126452
 30
0.0
 10
168.6227147301702
 20
-174.5970834126452
 30
0.0
  0
LINE
  5
120
330
81
100
AcDbEntity
  8
Layer 1
 62
    18
420
   460294
370
    18
100
AcDbLine
 10
169.5227147301706
 20
-174.5970834126452
 30
0.0
 11
168.6227147301702
 21
-174.5970834126452
 31
0.0
  0
SPLINE
  5
121
330
81
100
AcDbEntity
  8
Layer 1
 62
    18
420
   460294
370
    18
100
AcDbSpline
210
0.0
220
0.0
230
1.0
 70
     8
 71
     3
 72
     8
 73
     4
 74
     0
 42
0.0000000001
 43
0.0000000001
 40
0.0
 40
0.0
 40
0.0
 40
0.0
 40
1.0
 40
1.0
 40
1.0
 40
1.0
 10
169.5227147301706
 20
-174.5970834126452
 30
0.0
 10
169.6607859176282
 20
-174.5970834126452
 30
0.0
 10
169.7727147301714
 20
-174.4851546001032
 30
0.0
 10
169.7727147301714
 20
-174.3470834126457
 30
0.0
  0
LINE
  5
122
330
81
100
AcDbEntity
  8
Layer 1
 62
    18
420
   460294
370
    18
100
AcDbLine
 10
169.7727147301714
 20
-89.84708341264527
 30
0.0
 11
169.7727147301714
 21
-174.3470834126457
 31
0.0
  0
SPLINE
  5
123
330
81
100
AcDbEntity
  8
Layer 1
 62
    18
420
   460294
370
    18
100
AcDbSpline
210
0.0
220
0.0
230
1.0
 70
     8
 71
     3
 72
     8
 73
     4
 74
     0
 42
0.0000000001
 43
0.0000000001
 40
0.0
 40
0.0
 40
0.0
 40
0.0
 40
1.0
 40
1.0
 40
1.0
 40
1.0
 10
169.7727147301714
 20
-89.84708341264527
 30
0.0
 10
169.7727147301714
 20
-89.70901222518767
 30
0.0
 10
169.6607859176282
 20
-89.59708341264573
 30
0.0
 10
169.5227147301706
 20
-89.59708341264573
 30
0.0
  0
LINE
  5
124
330
81
100
AcDbEntity
  8
Layer 1
 62
    18
420
   460294
370
    18
100
AcDbLine
 10
139.7727147301704
 20
-89.59708341264573
 30
0.0
 11
169.5227147301706
 21
-89.59708341264573
 31
0.0
  0
SPLINE
  5
125
330
81
100
AcDbEntity
  8
Layer 1
 62
    18
420
   460294
370
    18
100
AcDbSpline
210
0.0
220
0.0
230
1.0
 70
     8
 71
     3
 72
     8
 73
     4
 74
     0
 42
0.0000000001
 43
0.0000000001
 40
0.0
 40
0.0
 40
0.0
 40
0.0
 40
1.0
 40
1.0
 40
1.0
 40
1.0
 10
139.7727147301704
 20
-89.59708341264573
 30
0.0
 10
139.4965723552552
 20
-89.59708341264573
 30
0.0
 10
139.2727147301713
 20
-89.82094103773027
 30
0.0
 10
139.2727147301713
 20
-90.09708341264607
 30
0.0
  0
LINE
  5
126
330
81
100
AcDbEntity
  8
Layer 1
 62
    18
420
   460294
370
    18
100
AcDbLine
 10
139.2727147301713
 20
-91.09708341264546
 30
0.0
 11
139.2727147301713
 21
-90.09708341264607
 31
0.0
  0
SPLINE
  5
127
330
81
100
AcDbEntity
  8
Layer 1
 62
    18
420
   460294
370
    18
100
AcDbSpline
210
0.0
220
0.0
230
1.0
 70
     8
 71
     3
 72
     8
 73
     4
 74
     0
 42
0.0000000001
 43
0.0000000001
 40
0.0
 40
0.0
 40
0.0
 40
0.0
 40
1.0
 40
1.0
 40
1.0
 40
1.0
 10
139.2727147301713
 20
-91.09708341264546
 30
0.0
 10
139.2727147301713
 20
-91.37322578756061
 30
0.0
 10
139.4965723552552
 20
-91.59708341264581
 30
0.0
 10
139.7727147301704
 20
-91.59708341264581
 30
0.0
  0
LINE
  5
128
330
81
100
AcDbEntity
  8
Layer 1
 62
    18
420
   460294
370
    18
100
AcDbLine
 10
139.7727147301704
 20
-91.59708341264581
 30
0.0
 11
140.772714730171
 21
-91.59708341264581
 31
0.0
  0
LINE
  5
129
330
81
100
AcDbEntity
  8
Layer 1
 62
    18
420
   460294
370
    18
100
AcDbLine
 10
140.772714730171
 20
-94.09708341264588
 30
0.0
 11
140.772714730171
 21
-91.59708341264581
 31
0.0
  0
LINE
  5
12A
330
81
100
AcDbEntity
  8
Layer 1
 62
    18
420
   460294
370
    18
100
AcDbLine
 10
134.2727147301705
 20
-94.09708341264588
 30
0.0
 11
140.772714730171
 21
-94.09708341264588
 31
0.0
  0
LINE
  5
12B
330
81
100
AcDbEntity
  8
Layer 1
 62
    18
420
   460294
370
    18
100
AcDbLine
 10
134.2727147301705
 20
-91.59708341264581
 30
0.0
 11
134.2727147301705
 21
-94.09708341264588
 31
0.0
  0
LINE
  5
12C
330
81
100
AcDbEntity
  8
Layer 1
 62
    18
420
   460294
370
    18
100
AcDbLine
 10
135.2727147301711
 20
-91.59708341264581
 30
0.0
 11
134.2727147301705
 21
-91.59708341264581
 31
0.0
  0
SPLINE
  5
12D
330
81
100
AcDbEntity
  8
Layer 1
 62
    18
420
   460294
370
    18
100
AcDbSpline
210
0.0
220
0.0
230
1.0
 70
     8
 71
     3
 72
     8
 73
     4
 74
     0
 42
0.0000000001
 43
0.0000000001
 40
0.0
 40
0.0
 40
0.0
 40
0.0
 40
1.0
 40
1.0
 40
1.0
 40
1.0
 10
135.2727147301711
 20
-91.59708341264581
 30
0.0
 10
135.5488571050863
 20
-91.59708341264581
 30
0.0
 10
135.7727147301715
 20
-91.37322578756061
 30
0.0
 10
135.7727147301715
 20
-91.09708341264546
 30
0.0
  0
LINE
  5
12E
330
81
100
AcDbEntity
  8
Layer 1
 62
    18
420
   460294
370
    18
100
AcDbLine
 10
135.7727147301702
 20
-90.09708341264607
 30
0.0
 11
135.7727147301702
 21
-91.09708341264546
 31
0.0
  0
SPLINE
  5
12F
330
81
100
AcDbEntity
  8
Layer 1
 62
    18
420
   460294
370
    18
100
AcDbSpline
210
0.0
220
0.0
230
1.0
 70
     8
 71
     3
 72
     8
 73
     4
 74
     0
 42
0.0000000001
 43
0.0000000001
 40
0.0
 40
0.0
 40
0.0
 40
0.0
 40
1.0
 40
1.0
 40
1.0
 40
1.0
 10
135.7727147301702
 20
-90.09708341264607
 30
0.0
 10
135.7727147301702
 20
-89.82094103773027
 30
0.0
 10
135.5488571050863
 20
-89.59708341264573
 30
0.0
 10
135.2727147301711
 20
-89.59708341264573
 30
0.0
  0
LINE
  5
130
330
81
100
AcDbEntity
  8
Layer 1
 62
    18
420
   460294
370
    18
100
AcDbLine
 10
133.2227147301709
 20
-89.59708341264573
 30
0.0
 11
135.2727147301711
 21
-89.59708341264573
 31
0.0
  0
SPLINE
  5
131
330
81
100
AcDbEntity
  8
Layer 1
 62
    18
420
   460294
370
    18
100
AcDbSpline
210
0.0
220
0.0
230
1.0
 70
     8
 71
     3
 72
     8
 73
     4
 74
     0
 42
0.0000000001
 43
0.0000000001
 40
0.0
 40
0.0
 40
0.0
 40
0.0
 40
1.0
 40
1.0
 40
1.0
 40
1.0
 10
133.2227147301709
 20
-89.59708341264573
 30
0.0
 10
133.0846435427133
 20
-89.59708341264573
 30
0.0
 10
132.9727147301714
 20
-89.70901222518767
 30
0.0
 10
132.9727147301714
 20
-89.84708341264527
 30
0.0
  0
LINE
  5
132
330
81
100
AcDbEntity
  8
Layer 1
 62
    18
420
   460294
370
    18
100
AcDbLine
 10
132.9727147301714
 20
-91.2970834126461
 30
0.0
 11
132.9727147301714
 21
-89.84708341264527
 31
0.0
  0
LINE
  5
133
330
81
100
AcDbEntity
  8
Layer 1
 62
    18
420
   460294
370
    18
100
AcDbLine
 10
131.672714730171
 20
-91.2970834126461
 30
0.0
 11
132.9727147301714
 21
-91.2970834126461
 31
0.0
  0
SPLINE
  5
134
330
81
100
AcDbEntity
  8
Layer 1
 62
    18
420
   460294
370
    18
100
AcDbSpline
210
0.0
220
0.0
230
1.0
 70
     8
 71
     3
 72
    11
 73
     7
 74
     0
 42
0.0000000001
 43
0.0000000001
 40
0.0
 40
0.0
 40
0.0
 40
0.0
 40
1.0
 40
1.0
 40
1.0
 40
2.0
 40
2.0
 40
2.0
 40
2.0
 10
131.672714730171
 20
-91.29708341265381
 30
0.0
 10
131.1756584553273
 20
-91.29708341265381
 30
0.0
 10
130.7727147301784
 20
-91.70002713780213
 30
0.0
 10
130.7727147301784
 20
-92.19708341264485
 30
0.0
 10
130.7727147301784
 20
-92.30488038462324
 30
0.0
 10
130.7920804677622
 20
-92.4118006290597
 30
0.0
 10
130.8298891957178
 20
-92.51274956297107
 30
0.0
  0
LINE
  5
135
330
81
100
AcDbEntity
  8
Layer 1
 62
    18
420
   460294
370
    18
100
AcDbLine
 10
131.870782265871
 20
-95.29192388124567
 30
0.0
 11
130.8298891956703
 21
-92.51274956294571
 31
0.0
  0
LINE
  5
136
330
81
100
AcDbEntity
  8
Layer 1
 62
    18
420
   460294
370
    18
100
AcDbLine
 10
131.870782265871
 20
-97.49192388124575
 30
0.0
 11
131.870782265871
 21
-95.29192388124567
 31
0.0
  0
SPLINE
  5
137
330
81
100
AcDbEntity
  8
Layer 1
 62
    18
420
   460294
370
    18
100
AcDbSpline
210
0.0
220
0.0
230
1.0
 70
     8
 71
     3
 72
     8
 73
     4
 74
     0
 42
0.0000000001
 43
0.0000000001
 40
0.0
 40
0.0
 40
0.0
 40
0.0
 40
1.0
 40
1.0
 40
1.0
 40
1.0
 10
131.3707822658707
 20
-97.99192388124545
 30
0.0
 10
131.6469246407858
 20
-97.99192388124545
 30
0.0
 10
131.870782265871
 20
-97.76806625616089
 30
0.0
 10
131.870782265871
 20
-97.49192388124575
 30
0.0
  0
LINE
  5
138
330
81
100
AcDbEntity
  8
Layer 1
 62
    18
420
   460294
370
    18
100
AcDbLine
 10
129.8227147301714
 20
-97.99192388124609
 30
0.0
 11
131.3707822658707
 21
-97.99192388124609
 31
0.0
  0
SPLINE
  5
139
330
81
100
AcDbEntity
  8
Layer 1
 62
    18
420
   460294
370
    18
100
AcDbSpline
210
0.0
220
0.0
230
1.0
 70
     8
 71
     3
 72
     8
 73
     4
 74
     0
 42
0.0000000001
 43
0.0000000001
 40
0.0
 40
0.0
 40
0.0
 40
0.0
 40
1.0
 40
1.0
 40
1.0
 40
1.0
 10
129.8227147301714
 20
-97.99192388124545
 30
0.0
 10
129.6846435427126
 20
-97.99192388124545
 30
0.0
 10
129.5727147301706
 20
-98.10385269378803
 30
0.0
 10
129.5727147301706
 20
-98.24192388124529
 30
0.0
  0
LINE
  5
13A
330
81
100
AcDbEntity
  8
Layer 1
 62
    18
420
   460294
370
    18
100
AcDbLine
 10
129.5727147301706
 20
-100.9919238812455
 30
0.0
 11
129.5727147301706
 21
-98.24192388124529
 31
0.0
  0
LINE
  5
13B
330
81
100
AcDbEntity
  8
Layer 1
 62
    18
420
   460294
370
    18
100
AcDbLine
 10
126.7727147301705
 20
-100.9919238812455
 30
0.0
 11
129.5727147301706
 21
-100.9919238812455
 31
0.0
  0
LINE
  5
13C
330
81
100
AcDbEntity
  8
Layer 1
 62
    18
420
   460294
370
    18
100
AcDbLine
 10
126.7727147301705
 20
-98.24192388124529
 30
0.0
 11
126.7727147301705
 21
-100.9919238812455
 31
0.0
  0
SPLINE
  5
13D
330
81
100
AcDbEntity
  8
Layer 1
 62
    18
420
   460294
370
    18
100
AcDbSpline
210
0.0
220
0.0
230
1.0
 70
     8
 71
     3
 72
     8
 73
     4
 74
     0
 42
0.0000000001
 43
0.0000000001
 40
0.0
 40
0.0
 40
0.0
 40
0.0
 40
1.0
 40
1.0
 40
1.0
 40
1.0
 10
126.7727147301705
 20
-98.24192388124529
 30
0.0
 10
126.7727147301705
 20
-98.10385269378803
 30
0.0
 10
126.6607859176286
 20
-97.99192388124545
 30
0.0
 10
126.522714730171
 20
-97.99192388124545
 30
0.0
  0
LINE
  5
13E
330
81
100
AcDbEntity
  8
Layer 1
 62
    18
420
   460294
370
    18
100
AcDbLine
 10
121.4626126787709
 20
-97.99192388124609
 30
0.0
 11
126.522714730171
 21
-97.99192388124609
 31
0.0
  0
SPLINE
  5
13F
330
81
100
AcDbEntity
  8
Layer 1
 62
    18
420
   460294
370
    18
100
AcDbSpline
210
0.0
220
0.0
230
1.0
 70
     8
 71
     3
 72
     8
 73
     4
 74
     0
 42
0.0000000001
 43
0.0000000001
 40
0.0
 40
0.0
 40
0.0
 40
0.0
 40
1.0
 40
1.0
 40
1.0
 40
1.0
 10
121.4626126787709
 20
-97.99192388121078
 30
0.0
 10
121.3686589942058
 20
-97.99192388121078
 30
0.0
 10
121.2826380132897
 20
-98.04460075881557
 30
0.0
 10
121.2399317930319
 20
-98.12828751759337
 30
0.0
  0
SPLINE
  5
140
330
81
100
AcDbEntity
  8
Layer 1
 62
    18
420
   460294
370
    18
100
AcDbSpline
210
0.0
220
0.0
230
1.0
 70
     8
 71
     3
 72
    11
 73
     7
 74
     0
 42
0.0000000001
 43
0.0000000001
 40
0.0
 40
0.0
 40
0.0
 40
0.0
 40
1.0
 40
1.0
 40
1.0
 40
2.0
 40
2.0
 40
2.0
 40
2.0
 10
120.7054976672998
 20
-98.12828751761999
 30
0.0
 10
120.7808092241007
 20
-98.27586742633783
 30
0.0
 10
120.9614984578274
 20
-98.33445250091815
 30
0.0
 10
121.1090783665452
 20
-98.25914094411663
 30
0.0
 10
121.1653953149184
 20
-98.23040182174514
 30
0.0
 10
121.21119267067
 20
-98.18460446599353
 30
0.0
 10
121.2399317930422
 20
-98.12828751761999
 30
0.0
  0
SPLINE
  5
141
330
81
100
AcDbEntity
  8
Layer 1
 62
    18
420
   460294
370
    18
100
AcDbSpline
210
0.0
220
0.0
230
1.0
 70
     8
 71
     3
 72
     8
 73
     4
 74
     0
 42
0.0000000001
 43
0.0000000001
 40
0.0
 40
0.0
 40
0.0
 40
0.0
 40
1.0
 40
1.0
 40
1.0
 40
1.0
 10
120.7054976672792
 20
-98.12828751761005
 30
0.0
 10
120.6627914470278
 20
-98.04460075884254
 30
0.0
 10
120.5767704661233
 20
-97.99192388124545
 30
0.0
 10
120.482816781571
 20
-97.99192388124545
 30
0.0
  0
LINE
  5
142
330
81
100
AcDbEntity
  8
Layer 1
 62
    18
420
   460294
370
    18
100
AcDbLine
 10
120.2626126787709
 20
-97.99192388124609
 30
0.0
 11
120.482816781571
 21
-97.99192388124609
 31
0.0
  0
SPLINE
  5
143
330
81
100
AcDbEntity
  8
Layer 1
 62
    18
420
   460294
370
    18
100
AcDbSpline
210
0.0
220
0.0
230
1.0
 70
     8
 71
     3
 72
     8
 73
     4
 74
     0
 42
0.0000000001
 43
0.0000000001
 40
0.0
 40
0.0
 40
0.0
 40
0.0
 40
1.0
 40
1.0
 40
1.0
 40
1.0
 10
120.2626126787709
 20
-97.99192388121014
 30
0.0
 10
120.1686589942045
 20
-97.99192388121014
 30
0.0
 10
120.0826380132884
 20
-98.04460075881463
 30
0.0
 10
120.0399317930318
 20
-98.12828751759337
 30
0.0
  0
SPLINE
  5
144
330
81
100
AcDbEntity
  8
Layer 1
 62
    18
420
   460294
370
    18
100
AcDbSpline
210
0.0
220
0.0
230
1.0
 70
     8
 71
     3
 72
    11
 73
     7
 74
     0
 42
0.0000000001
 43
0.0000000001
 40
0.0
 40
0.0
 40
0.0
 40
0.0
 40
1.0
 40
1.0
 40
1.0
 40
2.0
 40
2.0
 40
2.0
 40
2.0
 10
119.5054976672997
 20
-98.12828751761999
 30
0.0
 10
119.5808092241006
 20
-98.27586742633783
 30
0.0
 10
119.7614984578273
 20
-98.33445250091815
 30
0.0
 10
119.9090783665452
 20
-98.25914094411663
 30
0.0
 10
119.9653953149184
 20
-98.23040182174514
 30
0.0
 10
120.01119267067
 20
-98.18460446599353
 30
0.0
 10
120.0399317930421
 20
-98.12828751761999
 30
0.0
  0
SPLINE
  5
145
330
81
100
AcDbEntity
  8
Layer 1
 62
    18
420
   460294
370
    18
100
AcDbSpline
210
0.0
220
0.0
230
1.0
 70
     8
 71
     3
 72
     8
 73
     4
 74
     0
 42
0.0000000001
 43
0.0000000001
 40
0.0
 40
0.0
 40
0.0
 40
0.0
 40
1.0
 40
1.0
 40
1.0
 40
1.0
 10
119.5054976672792
 20
-98.12828751761005
 30
0.0
 10
119.4627914470278
 20
-98.04460075884254
 30
0.0
 10
119.3767704661233
 20
-97.99192388124545
 30
0.0
 10
119.282816781571
 20
-97.99192388124545
 30
0.0
  0
LINE
  5
146
330
81
100
AcDbEntity
  8
Layer 1
 62
    18
420
   460294
370
    18
100
AcDbLine
 10
119.0626126787708
 20
-97.99192388124609
 30
0.0
 11
119.282816781571
 21
-97.99192388124609
 31
0.0
  0
SPLINE
  5
147
330
81
100
AcDbEntity
  8
Layer 1
 62
    18
420
   460294
370
    18
100
AcDbSpline
210
0.0
220
0.0
230
1.0
 70
     8
 71
     3
 72
     8
 73
     4
 74
     0
 42
0.0000000001
 43
0.0000000001
 40
0.0
 40
0.0
 40
0.0
 40
0.0
 40
1.0
 40
1.0
 40
1.0
 40
1.0
 10
119.0626126787708
 20
-97.99192388121014
 30
0.0
 10
118.9686589942044
 20
-97.99192388121014
 30
0.0
 10
118.8826380132883
 20
-98.04460075881463
 30
0.0
 10
118.8399317930318
 20
-98.12828751759337
 30
0.0
  0
SPLINE
  5
148
330
81
100
AcDbEntity
  8
Layer 1
 62
    18
420
   460294
370
    18
100
AcDbSpline
210
0.0
220
0.0
230
1.0
 70
     8
 71
     3
 72
    11
 73
     7
 74
     0
 42
0.0000000001
 43
0.0000000001
 40
0.0
 40
0.0
 40
0.0
 40
0.0
 40
1.0
 40
1.0
 40
1.0
 40
2.0
 40
2.0
 40
2.0
 40
2.0
 10
118.3054976672997
 20
-98.12828751761999
 30
0.0
 10
118.3808092241006
 20
-98.27586742633783
 30
0.0
 10
118.5614984578273
 20
-98.33445250091815
 30
0.0
 10
118.7090783665451
 20
-98.25914094411663
 30
0.0
 10
118.7653953149183
 20
-98.23040182174514
 30
0.0
 10
118.8111926706699
 20
-98.18460446599353
 30
0.0
 10
118.8399317930421
 20
-98.12828751761999
 30
0.0
  0
SPLINE
  5
149
330
81
100
AcDbEntity
  8
Layer 1
 62
    18
420
   460294
370
    18
100
AcDbSpline
210
0.0
220
0.0
230
1.0
 70
     8
 71
     3
 72
     8
 73
     4
 74
     0
 42
0.0000000001
 43
0.0000000001
 40
0.0
 40
0.0
 40
0.0
 40
0.0
 40
1.0
 40
1.0
 40
1.0
 40
1.0
 10
118.3054976672779
 20
-98.12828751761005
 30
0.0
 10
118.2627914470278
 20
-98.0446007588435
 30
0.0
 10
118.1767704661232
 20
-97.99192388124609
 30
0.0
 10
118.0828167815709
 20
-97.99192388124609
 30
0.0
  0
LINE
  5
14A
330
81
100
AcDbEntity
  8
Layer 1
 62
    18
420
   460294
370
    18
100
AcDbLine
 10
113.0227147301708
 20
-97.99192388134555
 30
0.0
 11
118.0828167815709
 21
-97.99192388124609
 31
0.0
  0
SPLINE
  5
14B
330
81
100
AcDbEntity
  8
Layer 1
 62
    18
420
   460294
370
    18
100
AcDbSpline
210
0.0
220
0.0
230
1.0
 70
     8
 71
     3
 72
    11
 73
     7
 74
     0
 42
0.0000000001
 43
0.0000000001
 40
0.0
 40
0.0
 40
0.0
 40
0.0
 40
1.0
 40
1.0
 40
1.0
 40
2.0
 40
2.0
 40
2.0
 40
2.0
 10
113.022714730108
 20
-97.99192388127368
 30
0.0
 10
112.8846435426106
 20
-97.9919238812525
 30
0.0
 10
112.7727147300199
 20
-98.1038526938105
 30
0.0
 10
112.7727147299993
 20
-98.2419238813085
 30
0.0
 10
112.7727147299993
 20
-98.2419238813085
 30
0.0
 10
112.7727147299993
 20
-98.24192388135084
 30
0.0
 10
112.7727147299993
 20
-98.24192388135084
 30
0.0
  0
LINE
  5
14C
330
81
100
AcDbEntity
  8
Layer 1
 62
    18
420
   460294
370
    18
100
AcDbLine
 10
112.7727147301713
 20
-100.9919238813456
 30
0.0
 11
112.7727147300712
 21
-98.24192388134571
 31
0.0
  0
LINE
  5
14D
330
81
100
AcDbEntity
  8
Layer 1
 62
    18
420
   460294
370
    18
100
AcDbLine
 10
109.9727147301712
 20
-100.9919238814457
 30
0.0
 11
112.7727147301713
 21
-100.9919238813456
 31
0.0
  0
LINE
  5
14E
330
81
100
AcDbEntity
  8
Layer 1
 62
    18
420
   460294
370
    18
100
AcDbLine
 10
109.9727147300711
 20
-98.24192388144581
 30
0.0
 11
109.9727147301712
 21
-100.9919238814457
 31
0.0
  0
SPLINE
  5
14F
330
81
100
AcDbEntity
  8
Layer 1
 62
    18
420
   460294
370
    18
100
AcDbSpline
210
0.0
220
0.0
230
1.0
 70
     8
 71
     3
 72
     8
 73
     4
 74
     0
 42
0.0000000001
 43
0.0000000001
 40
0.0
 40
0.0
 40
0.0
 40
0.0
 40
1.0
 40
1.0
 40
1.0
 40
1.0
 10
109.9727147300711
 20
-98.24192388144069
 30
0.0
 10
109.9727147300685
 20
-98.10385269398246
 30
0.0
 10
109.8607859175227
 20
-97.99192388144245
 30
0.0
 10
109.7227147300652
 20
-97.99192388144501
 30
0.0
  0
LINE
  5
150
330
81
100
AcDbEntity
  8
Layer 1
 62
    18
420
   460294
370
    18
100
AcDbLine
 10
108.1746471943711
 20
-97.99192388144597
 30
0.0
 11
109.7227147300703
 21
-97.99192388144597
 31
0.0
  0
SPLINE
  5
151
330
81
100
AcDbEntity
  8
Layer 1
 62
    18
420
   460294
370
    18
100
AcDbSpline
210
0.0
220
0.0
230
1.0
 70
     8
 71
     3
 72
     8
 73
     4
 74
     0
 42
0.0000000001
 43
0.0000000001
 40
0.0
 40
0.0
 40
0.0
 40
0.0
 40
1.0
 40
1.0
 40
1.0
 40
1.0
 10
107.6746471943707
 20
-97.49192388145591
 30
0.0
 10
107.6746471943772
 20
-97.76806625637137
 30
0.0
 10
107.8985048194662
 20
-97.99192388145144
 30
0.0
 10
108.1746471943814
 20
-97.99192388144597
 30
0.0
  0
LINE
  5
152
330
81
100
AcDbEntity
  8
Layer 1
 62
    18
420
   460294
370
    18
100
AcDbLine
 10
107.6746471943707
 20
-95.29192388144522
 30
0.0
 11
107.6746471943707
 21
-97.49192388144596
 31
0.0
  0
LINE
  5
153
330
81
100
AcDbEntity
  8
Layer 1
 62
    18
420
   460294
370
    18
100
AcDbLine
 10
108.7155402644713
 20
-92.5127495631456
 30
0.0
 11
107.6746471943707
 21
-95.29192388144522
 31
0.0
  0
SPLINE
  5
154
330
81
100
AcDbEntity
  8
Layer 1
 62
    18
420
   460294
370
    18
100
AcDbSpline
210
0.0
220
0.0
230
1.0
 70
     8
 71
     3
 72
    11
 73
     7
 74
     0
 42
0.0000000001
 43
0.0000000001
 40
0.0
 40
0.0
 40
0.0
 40
0.0
 40
1.0
 40
1.0
 40
1.0
 40
2.0
 40
2.0
 40
2.0
 40
2.0
 10
108.7155402644303
 20
-92.51274956315331
 30
0.0
 10
108.8898778652822
 20
-92.04726987370362
 30
0.0
 10
108.6538605697279
 20
-91.52859547923895
 30
0.0
 10
108.1883808802785
 20
-91.35425787838704
 30
0.0
 10
108.0874319463665
 20
-91.31644915043242
 30
0.0
 10
107.9805117019294
 20
-91.29708341285144
 30
0.0
 10
107.8727147299514
 20
-91.29708341285338
 30
0.0
  0
LINE
  5
155
330
81
100
AcDbEntity
  8
Layer 1
 62
    18
420
   460294
370
    18
100
AcDbLine
 10
106.5727147299702
 20
-91.29708341294611
 30
0.0
 11
107.8727147299706
 21
-91.29708341284567
 31
0.0
  0
LINE
  5
156
330
81
100
AcDbEntity
  8
Layer 1
 62
    18
420
   460294
370
    18
100
AcDbLine
 10
106.5727147299702
 20
-89.84708341294556
 30
0.0
 11
106.5727147299702
 21
-91.29708341294611
 31
0.0
  0
SPLINE
  5
157
330
81
100
AcDbEntity
  8
Layer 1
 62
    18
420
   460294
370
    18
100
AcDbSpline
210
0.0
220
0.0
230
1.0
 70
     8
 71
     3
 72
     8
 73
     4
 74
     0
 42
0.0000000001
 43
0.0000000001
 40
0.0
 40
0.0
 40
0.0
 40
0.0
 40
1.0
 40
1.0
 40
1.0
 40
1.0
 10
106.5727147299702
 20
-89.84708341294043
 30
0.0
 10
106.5727147299677
 20
-89.70901222548286
 30
0.0
 10
106.4607859174232
 20
-89.59708341294284
 30
0.0
 10
106.3227147299656
 20
-89.59708341294605
 30
0.0
  0
LINE
  5
158
330
81
100
AcDbEntity
  8
Layer 1
 62
    18
420
   460294
370
    18
100
AcDbLine
 10
104.2727147299708
 20
-89.59708341294605
 30
0.0
 11
106.3227147299707
 21
-89.59708341294605
 31
0.0
  0
SPLINE
  5
159
330
81
100
AcDbEntity
  8
Layer 1
 62
    18
420
   460294
370
    18
100
AcDbSpline
210
0.0
220
0.0
230
1.0
 70
     8
 71
     3
 72
     8
 73
     4
 74
     0
 42
0.0000000001
 43
0.0000000001
 40
0.0
 40
0.0
 40
0.0
 40
0.0
 40
1.0
 40
1.0
 40
1.0
 40
1.0
 10
104.2727147299708
 20
-89.59708341294605
 30
0.0
 10
103.9965723550557
 20
-89.59708341294605
 30
0.0
 10
103.7727147299711
 20
-89.82094103802994
 30
0.0
 10
103.7727147299711
 20
-90.09708341294542
 30
0.0
  0
LINE
  5
15A
330
81
100
AcDbEntity
  8
Layer 1
 62
    18
420
   460294
370
    18
100
AcDbLine
 10
103.7727147299711
 20
-91.09708341294609
 30
0.0
 11
103.7727147299711
 21
-90.09708341294542
 31
0.0
  0
SPLINE
  5
15B
330
81
100
AcDbEntity
  8
Layer 1
 62
    18
420
   460294
370
    18
100
AcDbSpline
210
0.0
220
0.0
230
1.0
 70
     8
 71
     3
 72
     8
 73
     4
 74
     0
 42
0.0000000001
 43
0.0000000001
 40
0.0
 40
0.0
 40
0.0
 40
0.0
 40
1.0
 40
1.0
 40
1.0
 40
1.0
 10
103.7727147299705
 20
-91.09708341295604
 30
0.0
 10
103.7727147299769
 20
-91.3732257878712
 30
0.0
 10
103.9965723550659
 20
-91.59708341295125
 30
0.0
 10
104.2727147299811
 20
-91.59708341294644
 30
0.0
  0
LINE
  5
15C
330
81
100
AcDbEntity
  8
Layer 1
 62
    18
420
   460294
370
    18
100
AcDbLine
 10
105.2727147299709
 20
-91.59708341294546
 30
0.0
 11
104.2727147299708
 21
-91.59708341294546
 31
0.0
  0
LINE
  5
15D
330
81
100
AcDbEntity
  8
Layer 1
 62
    18
420
   460294
370
    18
100
AcDbLine
 10
105.272714730071
 20
-94.09708341294523
 30
0.0
 11
105.2727147299709
 21
-91.59708341294546
 31
0.0
  0
LINE
  5
15E
330
81
100
AcDbEntity
  8
Layer 1
 62
    18
420
   460294
370
    18
100
AcDbLine
 10
98.77271473007107
 20
-94.09708341304535
 30
0.0
 11
105.272714730071
 21
-94.09708341294523
 31
0.0
  0
LINE
  5
15F
330
81
100
AcDbEntity
  8
Layer 1
 62
    18
420
   460294
370
    18
100
AcDbLine
 10
98.77271472997096
 20
-91.59708341304526
 30
0.0
 11
98.77271473007107
 21
-94.09708341304535
 31
0.0
  0
LINE
  5
160
330
81
100
AcDbEntity
  8
Layer 1
 62
    18
420
   460294
370
    18
100
AcDbLine
 10
98.77271472997096
 20
-91.59708341304526
 30
0.0
 11
99.77271472997037
 21
-91.59708341304526
 31
0.0
  0
SPLINE
  5
161
330
81
100
AcDbEntity
  8
Layer 1
 62
    18
420
   460294
370
    18
100
AcDbSpline
210
0.0
220
0.0
230
1.0
 70
     8
 71
     3
 72
     8
 73
     4
 74
     0
 42
0.0000000001
 43
0.0000000001
 40
0.0
 40
0.0
 40
0.0
 40
0.0
 40
1.0
 40
1.0
 40
1.0
 40
1.0
 10
99.77271472997037
 20
-91.59708341304526
 30
0.0
 10
100.0488571048868
 20
-91.59708341304526
 30
0.0
 10
100.2727147299707
 20
-91.37322578796103
 30
0.0
 10
100.2727147299707
 20
-91.09708341304587
 30
0.0
  0
LINE
  5
162
330
81
100
AcDbEntity
  8
Layer 1
 62
    18
420
   460294
370
    18
100
AcDbLine
 10
100.2727147299707
 20
-90.0970834130452
 30
0.0
 11
100.2727147299707
 21
-91.09708341304587
 31
0.0
  0
SPLINE
  5
163
330
81
100
AcDbEntity
  8
Layer 1
 62
    18
420
   460294
370
    18
100
AcDbSpline
210
0.0
220
0.0
230
1.0
 70
     8
 71
     3
 72
     8
 73
     4
 74
     0
 42
0.0000000001
 43
0.0000000001
 40
0.0
 40
0.0
 40
0.0
 40
0.0
 40
1.0
 40
1.0
 40
1.0
 40
1.0
 10
100.2727147299707
 20
-90.09708341303493
 30
0.0
 10
100.2727147299655
 20
-89.82094103812009
 30
0.0
 10
100.0488571048759
 20
-89.59708341303972
 30
0.0
 10
99.77271472996042
 20
-89.59708341304551
 30
0.0
  0
LINE
  5
164
330
81
100
AcDbEntity
  8
Layer 1
 62
    18
420
   460294
370
    18
100
AcDbLine
 10
70.0227147299714
 20
-89.59708341364549
 30
0.0
 11
99.77271472997037
 21
-89.59708341304551
 31
0.0
  0
SPLINE
  5
165
330
81
100
AcDbEntity
  8
Layer 1
 62
    18
420
   460294
370
    18
100
AcDbSpline
210
0.0
220
0.0
230
1.0
 70
     8
 71
     3
 72
     8
 73
     4
 74
     0
 42
0.0000000001
 43
0.0000000001
 40
0.0
 40
0.0
 40
0.0
 40
0.0
 40
1.0
 40
1.0
 40
1.0
 40
1.0
 10
70.02271472992133
 20
-89.59708341367372
 30
0.0
 10
69.8846435426999
 20
-89.59708341441938
 30
0.0
 10
69.77271473095367
 20
-89.70901222737394
 30
0.0
 10
69.77271473169932
 20
-89.84708341459473
 30
0.0
  0
LINE
  5
166
330
81
100
AcDbEntity
  8
Layer 1
 62
    18
420
   460294
370
    18
100
AcDbLine
 10
69.77271473347041
 20
-174.3470834146452
 30
0.0
 11
69.77271473167109
 21
-89.84708341464608
 31
0.0
  0
SPLINE
  5
167
330
81
100
AcDbEntity
  8
Layer 1
 62
    18
420
   460294
370
    18
100
AcDbSpline
210
0.0
220
0.0
230
1.0
 70
     8
 71
     3
 72
     8
 73
     4
 74
     0
 42
0.0000000001
 43
0.0000000001
 40
0.0
 40
0.0
 40
0.0
 40
0.0
 40
1.0
 40
1.0
 40
1.0
 40
1.0
 10
69.77271473347041
 20
-174.3470834146015
 30
0.0
 10
69.7727147343306
 20
-174.4851546020591
 30
0.0
 10
69.88464354756911
 20
-174.5970834139055
 30
0.0
 10
70.0227147350267
 20
-174.5970834130456
 30
0.0
  0
LINE
  5
168
330
81
100
AcDbEntity
  8
Layer 1
 62
    18
420
   460294
370
    18
100
AcDbLine
 10
70.92271473507068
 20
-174.5970834130456
 30
0.0
 11
70.02271473507161
 21
-174.5970834130456
 31
0.0
  0
LINE
  5
169
330
81
100
AcDbEntity
  8
Layer 1
 62
    18
420
   460294
370
    18
100
AcDbLine
 10
144.6727147301708
 20
-130.7970834126455
 30
0.0
 11
139.3727147301703
 21
-130.7970834126455
 31
0.0
  0
LINE
  5
16A
330
81
100
AcDbEntity
  8
Layer 1
 62
    18
420
   460294
370
    18
100
AcDbLine
 10
139.3727147301703
 20
-130.7970834126455
 30
0.0
 11
139.3727147301703
 21
-121.1970834126459
 31
0.0
  0
LINE
  5
16B
330
81
100
AcDbEntity
  8
Layer 1
 62
    18
420
   460294
370
    18
100
AcDbLine
 10
140.372714730171
 20
-121.1970834126459
 30
0.0
 11
139.3727147301703
 21
-121.1970834126459
 31
0.0
  0
SPLINE
  5
16C
330
81
100
AcDbEntity
  8
Layer 1
 62
    18
420
   460294
370
    18
100
AcDbSpline
210
0.0
220
0.0
230
1.0
 70
     8
 71
     3
 72
     8
 73
     4
 74
     0
 42
0.0000000001
 43
0.0000000001
 40
0.0
 40
0.0
 40
0.0
 40
0.0
 40
1.0
 40
1.0
 40
1.0
 40
1.0
 10
140.372714730171
 20
-121.1970834126459
 30
0.0
 10
140.9249994800013
 20
-121.1970834126459
 30
0.0
 10
141.3727147301704
 20
-120.7493681624765
 30
0.0
 10
141.3727147301704
 20
-120.1970834126452
 30
0.0
  0
LINE
  5
16D
330
81
100
AcDbEntity
  8
Layer 1
 62
    18
420
   460294
370
    18
100
AcDbLine
 10
141.3727147301704
 20
-98.59708341264541
 30
0.0
 11
141.3727147301704
 21
-120.1970834126452
 31
0.0
  0
LINE
  5
16E
330
81
100
AcDbEntity
  8
Layer 1
 62
    18
420
   460294
370
    18
100
AcDbLine
 10
142.7727147301711
 20
-98.59708341264541
 30
0.0
 11
141.3727147301704
 21
-98.59708341264541
 31
0.0
  0
LINE
  5
16F
330
81
100
AcDbEntity
  8
Layer 1
 62
    18
420
   460294
370
    18
100
AcDbLine
 10
142.7727147301711
 20
-98.59708341264541
 30
0.0
 11
142.7727147301711
 21
-91.59708341264581
 31
0.0
  0
LINE
  5
170
330
81
100
AcDbEntity
  8
Layer 1
 62
    18
420
   460294
370
    18
100
AcDbLine
 10
142.7727147301711
 20
-91.59708341264581
 30
0.0
 11
151.9227147301713
 21
-91.59708341264581
 31
0.0
  0
LINE
  5
171
330
81
100
AcDbEntity
  8
Layer 1
 62
    18
420
   460294
370
    18
100
AcDbLine
 10
151.9227147301713
 20
-91.59708341264581
 30
0.0
 11
151.9227147301713
 21
-94.09708341264588
 31
0.0
  0
LINE
  5
172
330
81
100
AcDbEntity
  8
Layer 1
 62
    18
420
   460294
370
    18
100
AcDbLine
 10
151.9227147301713
 20
-94.09708341264588
 30
0.0
 11
153.6727147301705
 21
-94.09708341264588
 31
0.0
  0
SPLINE
  5
173
330
81
100
AcDbEntity
  8
Layer 1
 62
    18
420
   460294
370
    18
100
AcDbSpline
210
0.0
220
0.0
230
1.0
 70
     8
 71
     3
 72
     8
 73
     4
 74
     0
 42
0.0000000001
 43
0.0000000001
 40
0.0
 40
0.0
 40
0.0
 40
0.0
 40
1.0
 40
1.0
 40
1.0
 40
1.0
 10
153.6727147301705
 20
-94.09708341264588
 30
0.0
 10
153.8107859176281
 20
-94.09708341264588
 30
0.0
 10
153.9227147301713
 20
-93.98515460010266
 30
0.0
 10
153.9227147301713
 20
-93.8470834126454
 30
0.0
  0
LINE
  5
174
330
81
100
AcDbEntity
  8
Layer 1
 62
    18
420
   460294
370
    18
100
AcDbLine
 10
153.9227147301713
 20
-92.09708341264549
 30
0.0
 11
153.9227147301713
 21
-93.8470834126454
 31
0.0
  0
SPLINE
  5
175
330
81
100
AcDbEntity
  8
Layer 1
 62
    18
420
   460294
370
    18
100
AcDbSpline
210
0.0
220
0.0
230
1.0
 70
     8
 71
     3
 72
     8
 73
     4
 74
     0
 42
0.0000000001
 43
0.0000000001
 40
0.0
 40
0.0
 40
0.0
 40
0.0
 40
1.0
 40
1.0
 40
1.0
 40
1.0
 10
154.4227147301704
 20
-91.59708341264581
 30
0.0
 10
154.1465723552552
 20
-91.59708341264581
 30
0.0
 10
153.9227147301713
 20
-91.82094103773033
 30
0.0
 10
153.9227147301713
 20
-92.09708341264549
 30
0.0
  0
LINE
  5
176
330
81
100
AcDbEntity
  8
Layer 1
 62
    18
420
   460294
370
    18
100
AcDbLine
 10
156.2227147301711
 20
-91.59708341264581
 30
0.0
 11
154.4227147301704
 21
-91.59708341264581
 31
0.0
  0
SPLINE
  5
177
330
81
100
AcDbEntity
  8
Layer 1
 62
    18
420
   460294
370
    18
100
AcDbSpline
210
0.0
220
0.0
230
1.0
 70
     8
 71
     3
 72
     8
 73
     4
 74
     0
 42
0.0000000001
 43
0.0000000001
 40
0.0
 40
0.0
 40
0.0
 40
0.0
 40
1.0
 40
1.0
 40
1.0
 40
1.0
 10
156.7227147301714
 20
-92.09708341263523
 30
0.0
 10
156.722714730165
 20
-91.82094103771943
 30
0.0
 10
156.498857105076
 20
-91.59708341263938
 30
0.0
 10
156.2227147301608
 20
-91.59708341264581
 30
0.0
  0
LINE
  5
178
330
81
100
AcDbEntity
  8
Layer 1
 62
    18
420
   460294
370
    18
100
AcDbLine
 10
156.7227147301714
 20
-93.8470834126454
 30
0.0
 11
156.7227147301714
 21
-92.09708341264549
 31
0.0
  0
SPLINE
  5
179
330
81
100
AcDbEntity
  8
Layer 1
 62
    18
420
   460294
370
    18
100
AcDbSpline
210
0.0
220
0.0
230
1.0
 70
     8
 71
     3
 72
     8
 73
     4
 74
     0
 42
0.0000000001
 43
0.0000000001
 40
0.0
 40
0.0
 40
0.0
 40
0.0
 40
1.0
 40
1.0
 40
1.0
 40
1.0
 10
156.7227147301701
 20
-93.84708341261074
 30
0.0
 10
156.7227147301522
 20
-93.98515460006896
 30
0.0
 10
156.8346435426787
 20
-94.09708341262696
 30
0.0
 10
156.9727147301363
 20
-94.09708341264622
 30
0.0
  0
LINE
  5
17A
330
81
100
AcDbEntity
  8
Layer 1
 62
    18
420
   460294
370
    18
100
AcDbLine
 10
156.972714730171
 20
-94.09708341264588
 30
0.0
 11
158.7227147301702
 21
-94.09708341264588
 31
0.0
  0
LINE
  5
17B
330
81
100
AcDbEntity
  8
Layer 1
 62
    18
420
   460294
370
    18
100
AcDbLine
 10
158.7227147301702
 20
-94.09708341264588
 30
0.0
 11
158.7227147301702
 21
-91.59708341264581
 31
0.0
  0
LINE
  5
17C
330
81
100
AcDbEntity
  8
Layer 1
 62
    18
420
   460294
370
    18
100
AcDbLine
 10
158.7227147301702
 20
-91.59708341264581
 30
0.0
 11
167.8727147301704
 21
-91.59708341264581
 31
0.0
  0
LINE
  5
17D
330
81
100
AcDbEntity
  8
Layer 1
 62
    18
420
   460294
370
    18
100
AcDbLine
 10
167.8727147301704
 20
-91.59708341264581
 30
0.0
 11
167.8727147301704
 21
-135.7970834126457
 31
0.0
  0
LINE
  5
17E
330
81
100
AcDbEntity
  8
Layer 1
 62
    18
420
   460294
370
    18
100
AcDbLine
 10
167.8727147301704
 20
-135.7970834126457
 30
0.0
 11
168.3727147301707
 21
-135.7970834126457
 31
0.0
  0
LINE
  5
17F
330
81
100
AcDbEntity
  8
Layer 1
 62
    18
420
   460294
370
    18
100
AcDbLine
 10
168.3727147301707
 20
-142.2022429440456
 30
0.0
 11
168.3727147301707
 21
-135.7970834126457
 31
0.0
  0
LINE
  5
180
330
81
100
AcDbEntity
  8
Layer 1
 62
    18
420
   460294
370
    18
100
AcDbLine
 10
167.8727147301704
 20
-142.2022429440456
 30
0.0
 11
168.3727147301707
 21
-142.2022429440456
 31
0.0
  0
SPLINE
  5
181
330
81
100
AcDbEntity
  8
Layer 1
 62
    18
420
   460294
370
    18
100
AcDbSpline
210
0.0
220
0.0
230
1.0
 70
     8
 71
     3
 72
     8
 73
     4
 74
     0
 42
0.0000000001
 43
0.0000000001
 40
0.0
 40
0.0
 40
0.0
 40
0.0
 40
1.0
 40
1.0
 40
1.0
 40
1.0
 10
167.8727147301704
 20
-142.2022429440456
 30
0.0
 10
167.7346435427128
 20
-142.2022429440456
 30
0.0
 10
167.6227147301709
 20
-142.3141717565879
 30
0.0
 10
167.6227147301709
 20
-142.4522429440457
 30
0.0
  0
LINE
  5
182
330
81
100
AcDbEntity
  8
Layer 1
 62
    18
420
   460294
370
    18
100
AcDbLine
 10
167.6227147301709
 20
-143.9522429440455
 30
0.0
 11
167.6227147301709
 21
-142.4522429440457
 31
0.0
  0
SPLINE
  5
183
330
81
100
AcDbEntity
  8
Layer 1
 62
    18
420
   460294
370
    18
100
AcDbSpline
210
0.0
220
0.0
230
1.0
 70
     8
 71
     3
 72
     8
 73
     4
 74
     0
 42
0.0000000001
 43
0.0000000001
 40
0.0
 40
0.0
 40
0.0
 40
0.0
 40
1.0
 40
1.0
 40
1.0
 40
1.0
 10
167.6227147301709
 20
-143.9522429440455
 30
0.0
 10
167.6227147301709
 20
-144.0903141315034
 30
0.0
 10
167.7346435427128
 20
-144.2022429440457
 30
0.0
 10
167.8727147301704
 20
-144.2022429440457
 30
0.0
  0
LINE
  5
184
330
81
100
AcDbEntity
  8
Layer 1
 62
    18
420
   460294
370
    18
100
AcDbLine
 10
168.3727147301707
 20
-144.2022429440457
 30
0.0
 11
167.8727147301704
 21
-144.2022429440457
 31
0.0
  0
LINE
  5
185
330
81
100
AcDbEntity
  8
Layer 1
 62
    18
420
   460294
370
    18
100
AcDbLine
 10
168.3727147301707
 20
-147.0022429440458
 30
0.0
 11
168.3727147301707
 21
-144.2022429440457
 31
0.0
  0
LINE
  5
186
330
81
100
AcDbEntity
  8
Layer 1
 62
    18
420
   460294
370
    18
100
AcDbLine
 10
167.8727147301704
 20
-147.0022429440458
 30
0.0
 11
168.3727147301707
 21
-147.0022429440458
 31
0.0
  0
SPLINE
  5
187
330
81
100
AcDbEntity
  8
Layer 1
 62
    18
420
   460294
370
    18
100
AcDbSpline
210
0.0
220
0.0
230
1.0
 70
     8
 71
     3
 72
     8
 73
     4
 74
     0
 42
0.0000000001
 43
0.0000000001
 40
0.0
 40
0.0
 40
0.0
 40
0.0
 40
1.0
 40
1.0
 40
1.0
 40
1.0
 10
167.8727147301704
 20
-147.0022429440458
 30
0.0
 10
167.7346435427128
 20
-147.0022429440458
 30
0.0
 10
167.6227147301709
 20
-147.1141717565877
 30
0.0
 10
167.6227147301709
 20
-147.2522429440456
 30
0.0
  0
LINE
  5
188
330
81
100
AcDbEntity
  8
Layer 1
 62
    18
420
   460294
370
    18
100
AcDbLine
 10
167.6227147301709
 20
-148.7522429440456
 30
0.0
 11
167.6227147301709
 21
-147.2522429440456
 31
0.0
  0
SPLINE
  5
189
330
81
100
AcDbEntity
  8
Layer 1
 62
    18
420
   460294
370
    18
100
AcDbSpline
210
0.0
220
0.0
230
1.0
 70
     8
 71
     3
 72
     8
 73
     4
 74
     0
 42
0.0000000001
 43
0.0000000001
 40
0.0
 40
0.0
 40
0.0
 40
0.0
 40
1.0
 40
1.0
 40
1.0
 40
1.0
 10
167.6227147301709
 20
-148.7522429440456
 30
0.0
 10
167.6227147301709
 20
-148.8903141315035
 30
0.0
 10
167.7346435427128
 20
-149.0022429440455
 30
0.0
 10
167.8727147301704
 20
-149.0022429440455
 30
0.0
  0
LINE
  5
18A
330
81
100
AcDbEntity
  8
Layer 1
 62
    18
420
   460294
370
    18
100
AcDbLine
 10
168.3727147301707
 20
-149.0022429440455
 30
0.0
 11
167.8727147301704
 21
-149.0022429440455
 31
0.0
  0
ENDBLK
  5
84
330
81
100
AcDbEntity
  8
0
100
AcDbBlockEnd
  0
ENDSEC
  0
SECTION
  2
ENTITIES
  0
LINE
  5
79
330
70
100
AcDbEntity
  8
Layer 1
 62
   230
420
 15996011
370
    25
100
AcDbLine
 10
65.14572372320353
 20
-90.69708341284599
 30
0.0
 11
67.94558916592402
 21
-90.69708341284599
 31
0.0
  0
LINE
  5
7A
330
70
100
AcDbEntity
  8
Layer 1
 62
   230
420
 15996011
370
    25
100
AcDbLine
 10
169.5227147301706
 20
-86.84631788392211
 30
0.0
 11
169.5227147301706
 21
-83.95516851407853
 31
0.0
  0
LINE
  5
7B
330
70
100
AcDbEntity
  8
Layer 1
 62
   230
420
 15996011
370
    25
100
AcDbLine
 10
69.77271473167109
 20
-86.84631788392211
 30
0.0
 11
69.77271473167109
 21
-83.95516851407853
 31
0.0
  0
MTEXT
  5
7C
330
70
100
AcDbEntity
  8
Layer 1
100
AcDbMText
 10
112.1943549193594
 20
-76.26034567303968
 30
0.0
 40
0.2
 41
0.0
 46
0.0
 71
     7
 72
     1
  1
\C230;\c7017716;\FSwiss 721 Bold BT|b1|i0|c1;\H5.994400;\W1.000000;100
 73
     1
 44
1.0
  0
MTEXT
  5
7D
330
70
100
AcDbEntity
  8
Layer 1
100
AcDbMText
 10
48.58016886026436
 20
-130.7605841097829
 30
0.0
 40
0.2
 41
0.0
 46
0.0
 71
     7
 72
     1
  1
\C230;\c7017716;\FSwiss 721 Bold BT|b1|i0|c1;\H5.994400;\W1.000000;85
 73
     1
 44
1.0
  0
LINE
  5
7E
330
70
100
AcDbEntity
  8
Layer 1
 62
   230
420
 15996011
370
    35
100
AcDbLine
 10
69.77271473167109
 20
-81.22877837587111
 30
0.0
 11
169.5227147301706
 21
-81.22877837587111
 31
0.0
  0
LINE
  5
7F
330
70
100
AcDbEntity
  8
Layer 1
 62
   230
420
 15996011
370
    35
100
AcDbLine
 10
62.34069149427214
 20
-90.697080394466
 30
0.0
 11
62.34069149427214
 21
-174.3470834114457
 31
0.0
  0
LINE
  5
80
330
70
100
AcDbEntity
  8
Layer 1
 62
   230
420
 15996011
370
    25
100
AcDbLine
 10
64.65677039161137
 20
-174.2486713082694
 30
0.0
 11
67.45663583433186
 21
-174.2486713082694
 31
0.0
  0
INSERT
  5
82
330
70
100
AcDbEntity
  8
Layer 1
100
AcDbBlockReference
  2
Block_0
 10
0.0
 20
0.0
 30
0.0
  0
ENDSEC
  0
SECTION
  2
OBJECTS
  0
DICTIONARY
  5
C
330
0
100
AcDbDictionary
281
     1
  3
ACAD_COLOR
350
63
  3
ACAD_DETAILVIEWSTYLE
350
6A
  3
ACAD_GROUP
350
D
  3
ACAD_LAYOUT
350
62
  3
ACAD_MATERIAL
350
10
  3
ACAD_MLEADERSTYLE
350
66
  3
ACAD_MLINESTYLE
350
5F
  3
ACAD_PLOTSETTINGS
350
61
  3
ACAD_PLOTSTYLENAME
350
E
  3
ACAD_SCALELIST
350
42
  3
ACAD_SECTIONVIEWSTYLE
350
68
  3
ACAD_TABLESTYLE
350
64
  3
ACAD_VISUALSTYLE
350
29
  3
ACDB_RECOMPOSE_DATA
350
193
  3
AcDbVariableDictionary
350
18B
  0
DICTIONARY
  5
63
102
{ACAD_REACTORS
330
C
102
}
330
C
100
AcDbDictionary
281
     1
  0
DICTIONARY
  5
6A
102
{ACAD_REACTORS
330
C
102
}
330
C
100
AcDbDictionary
281
     1
  3
Imperial24
350
6B
  0
DICTIONARY
  5
D
102
{ACAD_REACTORS
330
C
102
}
330
C
100
AcDbDictionary
281
     1
  0
DICTIONARY
  5
62
102
{ACAD_REACTORS
330
C
102
}
330
C
100
AcDbDictionary
281
     1
  3
Layout1
350
6F
  3
Layout2
350
77
  3
Model
350
73
  0
DICTIONARY
  5
10
102
{ACAD_REACTORS
330
C
102
}
330
C
100
AcDbDictionary
281
     1
  3
ByBlock
350
19
  3
ByLayer
350
11
  3
Global
350
21
  0
DICTIONARY
  5
66
102
{ACAD_REACTORS
330
C
102
}
330
C
100
AcDbDictionary
281
     1
  3
Standard
350
67
  0
DICTIONARY
  5
5F
102
{ACAD_REACTORS
330
C
102
}
330
C
100
AcDbDictionary
281
     1
  3
Standard
350
60
  0
DICTIONARY
  5
61
102
{ACAD_REACTORS
330
C
102
}
330
C
100
AcDbDictionary
281
     1
  0
ACDBDICTIONARYWDFLT
  5
E
102
{ACAD_REACTORS
330
C
102
}
330
C
100
AcDbDictionary
281
     1
  3
Normal
350
F
100
AcDbDictionaryWithDefault
340
F
  0
DICTIONARY
  5
42
102
{ACAD_REACTORS
330
C
102
}
330
C
100
AcDbDictionary
281
     1
  3
A0
350
43
  3
A1
350
44
  3
A2
350
45
  3
A3
350
46
  3
A4
350
47
  3
A5
350
48
  3
A6
350
49
  3
A7
350
4A
  3
A8
350
4B
  3
A9
350
4C
  3
B0
350
4D
  3
B1
350
4E
  3
B2
350
4F
  3
B3
350
50
  3
B4
350
51
  3
B5
350
52
  3
B6
350
53
  0
DICTIONARY
  5
68
102
{ACAD_REACTORS
330
C
102
}
330
C
100
AcDbDictionary
281
     1
  3
Imperial24
350
69
  0
DICTIONARY
  5
64
102
{ACAD_REACTORS
330
C
102
}
330
C
100
AcDbDictionary
281
     1
  3
Standard
350
65
  0
DICTIONARY
  5
29
102
{ACAD_REACTORS
330
C
102
}
330
C
100
AcDbDictionary
281
     1
  3
2dWireframe
350
2F
  3
Basic
350
2E
  3
Brighten
350
35
  3
ColorChange
350
39
  3
Conceptual
350
32
  3
Dim
350
34
  3
EdgeColorOff
350
41
  3
Facepattern
350
38
  3
Flat
350
2A
  3
FlatWithEdges
350
2B
  3
Gouraud
350
2C
  3
GouraudWithEdges
350
2D
  3
Hidden
350
31
  3
JitterOff
350
3F
  3
Linepattern
350
37
  3
OverhangOff
350
40
  3
Realistic
350
33
  3
Shaded
350
3E
  3
Shaded with edges
350
3D
  3
Shades of Gray
350
3A
  3
Sketchy
350
3B
  3
Thicken
350
36
  3
Wireframe
350
30
  3
X-Ray
350
3C
  0
XRECORD
  5
193
102
{ACAD_REACTORS
330
C
102
}
330
C
100
AcDbXrecord
280
     1
 90
        1
330
65
  0
DICTIONARY
  5
18B
102
{ACAD_REACTORS
330
C
102
}
330
C
100
AcDbDictionary
281
     1
  3
CANNOSCALE
350
190
  3
CMLEADERSTYLE
350
18D
  3
CTABLESTYLE
350
18C
  3
CVIEWDETAILSTYLE
350
18E
  3
CVIEWSECTIONSTYLE
350
18F
  0
ACDBDETAILVIEWSTYLE
  5
6B
102
{ACAD_REACTORS
330
6A
102
}
330
6A
100
AcDbModelDocViewStyle
 70
     0
  3
Imperial24
290
     1
300
Imperial24
 90
        0
100
AcDbDetailViewStyle
 70
     0
 71
     0
 90
        3
 71
     1
340
55
 62
   256
 40
0.24
340
0
 62
   256
 40
0.24
300

 40
0.36
280
     3
 71
     2
340
5D
 90
       25
 62
   256
 71
     3
340
55
 62
   256
 40
0.24
 90
        1
 40
0.75
 90
        1
300
%<\AcVar ViewType \f "%tc1">% %<\AcVar ViewDetailId>%\PSCALE %<\AcVar ViewScale \f "%sn">%
 71
     4
340
5D
 90
       25
 62
   256
340
5D
 90
       25
 62
   256
280
     0
  0
LAYOUT
  5
6F
102
{ACAD_REACTORS
330
62
102
}
330
62
100
AcDbPlotSettings
  1

  2

  4

  6

 40
0.0
 41
0.0
 42
0.0
 43
0.0
 44
0.0
 45
0.0
 46
0.0
 47
0.0
 48
0.0
 49
0.0
140
0.0
141
0.0
142
1.0
143
1.0
 70
   688
 72
     0
 73
     0
 74
     5
  7

 75
    16
147
1.0
 76
     0
 77
     2
 78
   300
148
0.0
149
0.0
100
AcDbLayout
  1
Layout1
 70
     1
 71
     1
 10
0.0
 20
0.0
 11
12.0
 21
9.0
 12
0.0
 22
0.0
 32
0.0
 14
0.0
 24
0.0
 34
0.0
 15
0.0
 25
0.0
 35
0.0
146
0.0
 13
0.0
 23
0.0
 33
0.0
 16
1.0
 26
0.0
 36
0.0
 17
0.0
 27
1.0
 37
0.0
 76
     0
330
6C
  0
LAYOUT
  5
77
102
{ACAD_REACTORS
330
62
102
}
330
62
100
AcDbPlotSettings
  1

  2

  4

  6

 40
0.0
 41
0.0
 42
0.0
 43
0.0
 44
0.0
 45
0.0
 46
0.0
 47
0.0
 48
0.0
 49
0.0
140
0.0
141
0.0
142
1.0
143
1.0
 70
   688
 72
     0
 73
     0
 74
     5
  7

 75
    16
147
1.0
 76
     0
 77
     2
 78
   300
148
0.0
149
0.0
100
AcDbLayout
  1
Layout2
 70
     1
 71
     2
 10
0.0
 20
0.0
 11
12.0
 21
9.0
 12
0.0
 22
0.0
 32
0.0
 14
0.0
 24
0.0
 34
0.0
 15
0.0
 25
0.0
 35
0.0
146
0.0
 13
0.0
 23
0.0
 33
0.0
 16
1.0
 26
0.0
 36
0.0
 17
0.0
 27
1.0
 37
0.0
 76
     0
330
74
  0
LAYOUT
  5
73
102
{ACAD_REACTORS
330
62
102
}
330
62
100
AcDbPlotSettings
  1

  2

  4

  6

 40
0.0
 41
0.0
 42
0.0
 43
0.0
 44
0.0
 45
0.0
 46
0.0
 47
0.0
 48
0.0
 49
0.0
140
0.0
141
0.0
142
1.0
143
1.0
 70
  1712
 72
     0
 73
     0
 74
     0
  7

 75
     0
147
1.0
 76
     0
 77
     2
 78
   300
148
0.0
149
0.0
100
AcDbLayout
  1
Model
 70
     1
 71
     0
 10
0.0
 20
0.0
 11
12.0
 21
9.0
 12
0.0
 22
0.0
 32
0.0
 14
0.0
 24
0.0
 34
0.0
 15
0.0
 25
0.0
 35
0.0
146
0.0
 13
0.0
 23
0.0
 33
0.0
 16
1.0
 26
0.0
 36
0.0
 17
0.0
 27
1.0
 37
0.0
 76
     0
330
70
  0
MATERIAL
  5
19
102
{ACAD_XDICTIONARY
360
1A
102
}
102
{ACAD_REACTORS
330
10
102
}
330
10
100
AcDbMaterial
  1
ByBlock
 72
     0
 43
0.0208333333333333
 43
0.0
 43
0.0
 43
0.0
 43
0.0
 43
0.0208333333333333
 43
0.0
 43
0.0
 43
0.0
 43
0.0
 43
1.0
 43
0.0
 43
0.0
 43
0.0
 43
0.0
 43
1.0
 77
     0
 47
0.0208333333333333
 47
0.0
 47
0.0
 47
0.0
 47
0.0
 47
0.0208333333333333
 47
0.0
 47
0.0
 47
0.0
 47
0.0
 47
1.0
 47
0.0
 47
0.0
 47
0.0
 47
0.0
 47
1.0
171
     0
 49
0.0208333333333333
 49
0.0
 49
0.0
 49
0.0
 49
0.0
 49
0.0208333333333333
 49
0.0
 49
0.0
 49
0.0
 49
0.0
 49
1.0
 49
0.0
 49
0.0
 49
0.0
 49
0.0
 49
1.0
175
     0
142
0.0208333333333333
142
0.0
142
0.0
142
0.0
142
0.0
142
0.0208333333333333
142
0.0
142
0.0
142
0.0
142
0.0
142
1.0
142
0.0
142
0.0
142
0.0
142
0.0
142
1.0
179
     0
144
0.0208333333333333
144
0.0
144
0.0
144
0.0
144
0.0
144
0.0208333333333333
144
0.0
144
0.0
144
0.0
144
0.0
144
1.0
144
0.0
144
0.0
144
0.0
144
0.0
144
1.0
147
0.0208333333333333
147
0.0
147
0.0
147
0.0
147
0.0
147
0.0208333333333333
147
0.0
147
0.0
147
0.0
147
0.0
147
1.0
147
0.0
147
0.0
147
0.0
147
0.0
147
1.0
  0
MATERIAL
  5
11
102
{ACAD_XDICTIONARY
360
12
102
}
102
{ACAD_REACTORS
330
10
102
}
330
10
100
AcDbMaterial
  1
ByLayer
 72
     0
 43
0.0208333333333333
 43
0.0
 43
0.0
 43
0.0
 43
0.0
 43
0.0208333333333333
 43
0.0
 43
0.0
 43
0.0
 43
0.0
 43
1.0
 43
0.0
 43
0.0
 43
0.0
 43
0.0
 43
1.0
 77
     0
 47
0.0208333333333333
 47
0.0
 47
0.0
 47
0.0
 47
0.0
 47
0.0208333333333333
 47
0.0
 47
0.0
 47
0.0
 47
0.0
 47
1.0
 47
0.0
 47
0.0
 47
0.0
 47
0.0
 47
1.0
171
     0
 49
0.0208333333333333
 49
0.0
 49
0.0
 49
0.0
 49
0.0
 49
0.0208333333333333
 49
0.0
 49
0.0
 49
0.0
 49
0.0
 49
1.0
 49
0.0
 49
0.0
 49
0.0
 49
0.0
 49
1.0
175
     0
142
0.0208333333333333
142
0.0
142
0.0
142
0.0
142
0.0
142
0.0208333333333333
142
0.0
142
0.0
142
0.0
142
0.0
142
1.0
142
0.0
142
0.0
142
0.0
142
0.0
142
1.0
179
     0
144
0.0208333333333333
144
0.0
144
0.0
144
0.0
144
0.0
144
0.0208333333333333
144
0.0
144
0.0
144
0.0
144
0.0
144
1.0
144
0.0
144
0.0
144
0.0
144
0.0
144
1.0
147
0.0208333333333333
147
0.0
147
0.0
147
0.0
147
0.0
147
0.0208333333333333
147
0.0
147
0.0
147
0.0
147
0.0
147
1.0
147
0.0
147
0.0
147
0.0
147
0.0
147
1.0
  0
MATERIAL
  5
21
102
{ACAD_XDICTIONARY
360
22
102
}
102
{ACAD_REACTORS
330
10
102
}
330
10
100
AcDbMaterial
  1
Global
 72
     0
 43
0.0208333333333333
 43
0.0
 43
0.0
 43
0.0
 43
0.0
 43
0.0208333333333333
 43
0.0
 43
0.0
 43
0.0
 43
0.0
 43
1.0
 43
0.0
 43
0.0
 43
0.0
 43
0.0
 43
1.0
 77
     0
 47
0.0208333333333333
 47
0.0
 47
0.0
 47
0.0
 47
0.0
 47
0.0208333333333333
 47
0.0
 47
0.0
 47
0.0
 47
0.0
 47
1.0
 47
0.0
 47
0.0
 47
0.0
 47
0.0
 47
1.0
171
     0
 49
0.0208333333333333
 49
0.0
 49
0.0
 49
0.0
 49
0.0
 49
0.0208333333333333
 49
0.0
 49
0.0
 49
0.0
 49
0.0
 49
1.0
 49
0.0
 49
0.0
 49
0.0
 49
0.0
 49
1.0
175
     0
142
0.0208333333333333
142
0.0
142
0.0
142
0.0
142
0.0
142
0.0208333333333333
142
0.0
142
0.0
142
0.0
142
0.0
142
1.0
142
0.0
142
0.0
142
0.0
142
0.0
142
1.0
179
     0
144
0.0208333333333333
144
0.0
144
0.0
144
0.0
144
0.0
144
0.0208333333333333
144
0.0
144
0.0
144
0.0
144
0.0
144
1.0
144
0.0
144
0.0
144
0.0
144
0.0
144
1.0
147
0.0208333333333333
147
0.0
147
0.0
147
0.0
147
0.0
147
0.0208333333333333
147
0.0
147
0.0
147
0.0
147
0.0
147
1.0
147
0.0
147
0.0
147
0.0
147
0.0
147
1.0
  0
MLEADERSTYLE
  5
67
102
{ACAD_REACTORS
330
66
102
}
330
66
100
AcDbMLeaderStyle
179
     2
170
     2
171
     1
172
     0
 90
        2
 40
0.0
 41
0.0
173
     1
 91
-1056964608
340
5B
 92
       -2
290
     1
 42
0.09
291
     1
 43
0.36
  3
Standard
 44
0.18
300

342
55
174
     1
178
     6
175
     1
176
     0
 93
-1056964608
 45
0.18
292
     0
297
     0
 46
0.18
 94
-1056964608
 47
1.0
 49
1.0
140
1.0
293
     1
141
0.0
294
     1
177
     0
142
1.0
295
     1
296
     0
143
0.125
271
     0
272
     9
273
     9
298
     1
  0
MLINESTYLE
  5
60
102
{ACAD_REACTORS
330
5F
102
}
330
5F
100
AcDbMlineStyle
  2
STANDARD
 70
     0
  3

 62
   256
 51
90.0
 52
90.0
 71
     2
 49
0.5
 62
   256
  6
BYLAYER
 49
-0.5
 62
   256
  6
BYLAYER
  0
ACDBPLACEHOLDER
  5
F
102
{ACAD_REACTORS
330
E
102
}
330
E
  0
SCALE
  5
43
102
{ACAD_REACTORS
330
42
102
}
330
42
100
AcDbScale
 70
     0
300
1:1
140
1.0
141
1.0
290
     1
  0
SCALE
  5
44
102
{ACAD_REACTORS
330
42
102
}
330
42
100
AcDbScale
 70
     0
300
1/128" = 1'-0"
140
0.0078125
141
12.0
290
     0
  0
SCALE
  5
45
102
{ACAD_REACTORS
330
42
102
}
330
42
100
AcDbScale
 70
     0
300
1/64" = 1'-0"
140
0.015625
141
12.0
290
     0
  0
SCALE
  5
46
102
{ACAD_REACTORS
330
42
102
}
330
42
100
AcDbScale
 70
     0
300
1/32" = 1'-0"
140
0.03125
141
12.0
290
     0
  0
SCALE
  5
47
102
{ACAD_REACTORS
330
42
102
}
330
42
100
AcDbScale
 70
     0
300
1/16" = 1'-0"
140
0.0625
141
12.0
290
     0
  0
SCALE
  5
48
102
{ACAD_REACTORS
330
42
102
}
330
42
100
AcDbScale
 70
     0
300
3/32" = 1'-0"
140
0.09375
141
12.0
290
     0
  0
SCALE
  5
49
102
{ACAD_REACTORS
330
42
102
}
330
42
100
AcDbScale
 70
     0
300
1/8" = 1'-0"
140
0.125
141
12.0
290
     0
  0
SCALE
  5
4A
102
{ACAD_REACTORS
330
42
102
}
330
42
100
AcDbScale
 70
     0
300
3/16" = 1'-0"
140
0.1875
141
12.0
290
     0
  0
SCALE
  5
4B
102
{ACAD_REACTORS
330
42
102
}
330
42
100
AcDbScale
 70
     0
300
1/4" = 1'-0"
140
0.25
141
12.0
290
     0
  0
SCALE
  5
4C
102
{ACAD_REACTORS
330
42
102
}
330
42
100
AcDbScale
 70
     0
300
3/8" = 1'-0"
140
0.375
141
12.0
290
     0
  0
SCALE
  5
4D
102
{ACAD_REACTORS
330
42
102
}
330
42
100
AcDbScale
 70
     0
300
1/2" = 1'-0"
140
0.5
141
12.0
290
     0
  0
SCALE
  5
4E
102
{ACAD_REACTORS
330
42
102
}
330
42
100
AcDbScale
 70
     0
300
3/4" = 1'-0"
140
0.75
141
12.0
290
     0
  0
SCALE
  5
4F
102
{ACAD_REACTORS
330
42
102
}
330
42
100
AcDbScale
 70
     0
300
1" = 1'-0"
140
1.0
141
12.0
290
     0
  0
SCALE
  5
50
102
{ACAD_REACTORS
330
42
102
}
330
42
100
AcDbScale
 70
     0
300
1-1/2" = 1'-0"
140
1.5
141
12.0
290
     0
  0
SCALE
  5
51
102
{ACAD_REACTORS
330
42
102
}
330
42
100
AcDbScale
 70
     0
300
3" = 1'-0"
140
3.0
141
12.0
290
     0
  0
SCALE
  5
52
102
{ACAD_REACTORS
330
42
102
}
330
42
100
AcDbScale
 70
     0
300
6" = 1'-0"
140
6.0
141
12.0
290
     0
  0
SCALE
  5
53
102
{ACAD_REACTORS
330
42
102
}
330
42
100
AcDbScale
 70
     0
300
1'-0" = 1'-0"
140
12.0
141
12.0
290
     0
  0
ACDBSECTIONVIEWSTYLE
  5
69
102
{ACAD_REACTORS
330
68
102
}
330
68
100
AcDbModelDocViewStyle
 70
     0
  3
Imperial24
290
     1
300
Imperial24
 90
        0
100
AcDbSectionViewStyle
 70
     0
 71
     0
 90
       78
 71
     1
340
55
 62
   256
 40
0.24
340
0
340
0
 62
   256
 40
0.24
300
I, O, Q, S, X, Z
 40
0.48
 90
        3
 40
0.18
 90
        1
 71
     2
340
5D
 90
       25
 62
   256
340
5D
 90
       50
 62
   256
 40
0.24
 40
0.0
 40
0.24
 71
     3
340
55
 62
   256
 40
0.24
 90
        1
 40
0.75
 90
        1
300
%<\AcVar ViewType \f "%tc1">% %<\AcVar ViewSectionStartId>%-%<\AcVar ViewSectionEndId>%\PSCALE %<\AcVar ViewScale \f "%sn">%
 71
     4
 62
   256
 62
   257
300
ANSI31
 40
1.0
 90
        0
290
     0
290
     0
 90
        6
 40
0.0
 40
1.570796326794896
 40
0.2617993877991494
 40
1.308996938995747
 40
-0.2617993877991494
 40
1.832595714594046
  0
TABLESTYLE
  5
65
102
{ACAD_XDICTIONARY
360
191
102
}
102
{ACAD_REACTORS
330
64
102
}
330
64
100
AcDbTableStyle
280
     0
  3
Standard
 70
     0
 71
     0
 40
0.06
 41
0.06
280
     0
281
     0
  7
Standard
140
0.18
170
     2
 62
     0
 63
     7
283
     0
 90
      512
 91
        0
  1

274
    -2
284
     1
 64
     0
275
    -2
285
     1
 65
     0
276
    -2
286
     1
 66
     0
277
    -2
287
     1
 67
     0
278
    -2
288
     1
 68
     0
279
    -2
289
     1
 69
     0
  7
Standard
140
0.25
170
     5
 62
     0
 63
     7
283
     0
 90
      512
 91
        0
  1

274
    -2
284
     1
 64
     0
275
    -2
285
     1
 65
     0
276
    -2
286
     1
 66
     0
277
    -2
287
     1
 67
     0
278
    -2
288
     1
 68
     0
279
    -2
289
     1
 69
     0
  7
Standard
140
0.18
170
     5
 62
     0
 63
     7
283
     0
 90
      512
 91
        0
  1

274
    -2
284
     1
 64
     0
275
    -2
285
     1
 65
     0
276
    -2
286
     1
 66
     0
277
    -2
287
     1
 67
     0
278
    -2
288
     1
 68
     0
279
    -2
289
     1
 69
     0
  0
VISUALSTYLE
  5
2F
102
{ACAD_REACTORS
330
29
102
}
330
29
100
AcDbVisualStyle
  2
2dWireframe
 70
     4
177
     3
291
     0
 70
    58
 90
        0
176
     1
 90
        2
176
     1
 90
        0
176
     1
 90
        0
176
     1
 40
0.6
176
     1
 40
30.0
176
     1
 62
     7
420
 16777215
176
     1
 90
        1
176
     1
 90
        4
176
     1
 62
     7
176
     1
 62
   257
176
     1
 90
        1
176
     1
 90
        1
176
     1
 40
1.0
176
     1
 90
        0
176
     1
 62
   257
176
     1
 40
1.0
176
     1
 90
        1
176
     1
 90
        6
176
     1
 90
        2
176
     1
 62
     7
176
     1
 90
        5
176
     1
 90
        0
176
     1
 90
        0
176
     1
290
     0
176
     1
 90
        1
176
     1
 40
0.0
176
     1
 90
        0
176
     1
290
     1
176
     1
290
     1
176
     1
290
     0
176
     1
290
     0
176
     1
290
     0
176
     1
290
     0
176
     1
290
     0
176
     1
290
     0
176
     1
290
     0
176
     1
 90
       50
176
     1
 40
0.0
176
     1
 40
1.0
176
     1
 90
        0
176
     1
 62
    18
420
        0
176
     1
 90
       50
176
     1
 90
        3
176
     1
 62
     5
420
      255
176
     1
290
     0
176
     1
 90
       50
176
     1
 90
       50
176
     1
 90
       50
176
     1
290
     0
176
     1
 90
       50
176
     1
 62
   256
176
     0
 40
1.0
176
     0
 90
        2
176
     1
  1
strokes_ogs.tif
176
     1
290
     0
176
     1
 40
1.0
176
     1
 40
1.0
176
     1
  0
VISUALSTYLE
  5
2E
102
{ACAD_REACTORS
330
29
102
}
330
29
100
AcDbVisualStyle
  2
Basic
 70
     7
177
     3
291
     1
 70
    58
 90
        1
176
     1
 90
        0
176
     1
 90
        1
176
     1
 90
        0
176
     1
 40
0.6
176
     1
 40
30.0
176
     1
 62
     7
420
 16777215
176
     1
 90
        0
176
     1
 90
        4
176
     1
 62
     7
176
     1
 62
   257
176
     1
 90
        1
176
     1
 90
        1
176
     1
 40
1.0
176
     1
 90
        8
176
     1
 62
     7
176
     1
 40
1.0
176
     1
 90
        1
176
     1
 90
        6
176
     1
 90
        2
176
     1
 62
     7
176
     1
 90
        5
176
     1
 90
        0
176
     1
 90
        0
176
     1
290
     0
176
     1
 90
        1
176
     1
 40
0.0
176
     1
 90
        0
176
     1
290
     0
176
     1
290
     1
176
     1
290
     1
176
     1
290
     0
176
     1
290
     0
176
     1
290
     0
176
     1
290
     0
176
     1
290
     0
176
     1
290
     0
176
     1
 90
       50
176
     1
 40
0.0
176
     1
 40
1.0
176
     1
 90
        0
176
     1
 62
    18
420
        0
176
     1
 90
       50
176
     1
 90
        3
176
     1
 62
     5
420
      255
176
     1
290
     0
176
     1
 90
       50
176
     1
 90
       50
176
     1
 90
       50
176
     1
290
     0
176
     1
 90
       50
176
     1
 62
   256
176
     0
 40
1.0
176
     0
 90
        2
176
     1
  1
strokes_ogs.tif
176
     1
290
     0
176
     1
 40
1.0
176
     1
 40
1.0
176
     1
  0
VISUALSTYLE
  5
35
102
{ACAD_REACTORS
330
29
102
}
330
29
100
AcDbVisualStyle
  2
Brighten
 70
    12
177
     3
291
     1
 70
    58
 90
        2
176
     1
 90
        2
176
     1
 90
        0
176
     1
 90
        0
176
     1
 40
0.6
176
     1
 40
30.0
176
     1
 62
     7
420
 16777215
176
     1
 90
        1
176
     1
 90
        4
176
     1
 62
     7
176
     1
 62
   257
176
     1
 90
        1
176
     1
 90
        1
176
     1
 40
1.0
176
     1
 90
        8
176
     1
 62
     7
176
     1
 40
1.0
176
     1
 90
        1
176
     1
 90
        6
176
     1
 90
        2
176
     1
 62
     7
176
     1
 90
        5
176
     1
 90
        0
176
     1
 90
        0
176
     1
290
     0
176
     1
 90
        1
176
     1
 40
50.0
176
     1
 90
        0
176
     1
290
     0
176
     1
290
     1
176
     1
290
     1
176
     1
290
     0
176
     1
290
     0
176
     1
290
     0
176
     1
290
     0
176
     1
290
     0
176
     1
290
     0
176
     1
 90
       50
176
     1
 40
0.0
176
     1
 40
1.0
176
     1
 90
        0
176
     1
 62
    18
420
        0
176
     1
 90
       50
176
     1
 90
        3
176
     1
 62
     5
420
      255
176
     1
290
     0
176
     1
 90
       50
176
     1
 90
       50
176
     1
 90
       50
176
     1
290
     0
176
     1
 90
       50
176
     1
 62
   256
176
     0
 40
1.0
176
     0
 90
        2
176
     1
  1
strokes_ogs.tif
176
     1
290
     0
176
     1
 40
1.0
176
     1
 40
1.0
176
     1
  0
VISUALSTYLE
  5
39
102
{ACAD_REACTORS
330
29
102
}
330
29
100
AcDbVisualStyle
  2
ColorChange
 70
    16
177
     3
291
     1
 70
    58
 90
        2
176
     1
 90
        2
176
     1
 90
        3
176
     1
 90
        0
176
     1
 40
0.6
176
     1
 40
30.0
176
     1
 62
     8
420
  8421504
176
     1
 90
        1
176
     1
 90
        4
176
     1
 62
     7
176
     1
 62
   257
176
     1
 90
        1
176
     1
 90
        1
176
     1
 40
1.0
176
     1
 90
        8
176
     1
 62
     8
420
  8421504
176
     1
 40
1.0
176
     1
 90
        1
176
     1
 90
        6
176
     1
 90
        2
176
     1
 62
     7
176
     1
 90
        5
176
     1
 90
        0
176
     1
 90
        0
176
     1
290
     0
176
     1
 90
        1
176
     1
 40
0.0
176
     1
 90
        0
176
     1
290
     0
176
     1
290
     1
176
     1
290
     1
176
     1
290
     0
176
     1
290
     0
176
     1
290
     0
176
     1
290
     0
176
     1
290
     0
176
     1
290
     0
176
     1
 90
       50
176
     1
 40
0.0
176
     1
 40
1.0
176
     1
 90
        0
176
     1
 62
    18
420
        0
176
     1
 90
       50
176
     1
 90
        3
176
     1
 62
     5
420
      255
176
     1
290
     0
176
     1
 90
       50
176
     1
 90
       50
176
     1
 90
       50
176
     1
290
     0
176
     1
 90
       50
176
     1
 62
   256
176
     0
 40
1.0
176
     0
 90
        2
176
     1
  1
strokes_ogs.tif
176
     1
290
     0
176
     1
 40
1.0
176
     1
 40
1.0
176
     1
  0
VISUALSTYLE
  5
32
102
{ACAD_REACTORS
330
29
102
}
330
29
100
AcDbVisualStyle
  2
Conceptual
 70
     9
177
     3
291
     0
 70
    58
 90
        3
176
     1
 90
        2
176
     1
 90
        0
176
     1
 90
        0
176
     1
 40
0.6
176
     1
 40
30.0
176
     1
 62
     7
420
 16777215
176
     1
 90
        2
176
     1
 90
        2
176
     1
 62
     7
176
     1
 62
   257
176
     1
 90
        1
176
     1
 90
        1
176
     1
 40
179.0
176
     1
 90
        8
176
     1
 62
     7
176
     1
 40
1.0
176
     1
 90
        1
176
     1
 90
        6
176
     1
 90
        2
176
     1
 62
     7
176
     1
 90
        3
176
     1
 90
        0
176
     1
 90
        0
176
     1
290
     0
176
     1
 90
        1
176
     1
 40
0.0
176
     1
 90
        0
176
     1
290
     0
176
     1
290
     1
176
     1
290
     1
176
     1
290
     0
176
     1
290
     0
176
     1
290
     0
176
     1
290
     0
176
     1
290
     0
176
     1
290
     0
176
     1
 90
       50
176
     1
 40
0.0
176
     1
 40
1.0
176
     1
 90
        0
176
     1
 62
    18
420
        0
176
     1
 90
       50
176
     1
 90
        3
176
     1
 62
     5
420
      255
176
     1
290
     0
176
     1
 90
       50
176
     1
 90
       50
176
     1
 90
       50
176
     1
290
     0
176
     1
 90
       50
176
     1
 62
   256
176
     0
 40
1.0
176
     0
 90
        2
176
     1
  1
strokes_ogs.tif
176
     1
290
     0
176
     1
 40
1.0
176
     1
 40
1.0
176
     1
  0
VISUALSTYLE
  5
34
102
{ACAD_REACTORS
330
29
102
}
330
29
100
AcDbVisualStyle
  2
Dim
 70
    11
177
     3
291
     1
 70
    58
 90
        2
176
     1
 90
        2
176
     1
 90
        0
176
     1
 90
        0
176
     1
 40
0.6
176
     1
 40
30.0
176
     1
 62
     7
420
 16777215
176
     1
 90
        1
176
     1
 90
        4
176
     1
 62
     7
176
     1
 62
   257
176
     1
 90
        1
176
     1
 90
        1
176
     1
 40
1.0
176
     1
 90
        8
176
     1
 62
     7
176
     1
 40
1.0
176
     1
 90
        1
176
     1
 90
        6
176
     1
 90
        2
176
     1
 62
     7
176
     1
 90
        5
176
     1
 90
        0
176
     1
 90
        0
176
     1
290
     0
176
     1
 90
        1
176
     1
 40
-50.0
176
     1
 90
        0
176
     1
290
     0
176
     1
290
     1
176
     1
290
     1
176
     1
290
     0
176
     1
290
     0
176
     1
290
     0
176
     1
290
     0
176
     1
290
     0
176
     1
290
     0
176
     1
 90
       50
176
     1
 40
0.0
176
     1
 40
1.0
176
     1
 90
        0
176
     1
 62
    18
420
        0
176
     1
 90
       50
176
     1
 90
        3
176
     1
 62
     5
420
      255
176
     1
290
     0
176
     1
 90
       50
176
     1
 90
       50
176
     1
 90
       50
176
     1
290
     0
176
     1
 90
       50
176
     1
 62
   256
176
     0
 40
1.0
176
     0
 90
        2
176
     1
  1
strokes_ogs.tif
176
     1
290
     0
176
     1
 40
1.0
176
     1
 40
1.0
176
     1
  0
VISUALSTYLE
  5
41
102
{ACAD_REACTORS
330
29
102
}
330
29
100
AcDbVisualStyle
  2
EdgeColorOff
 70
    22
177
     3
291
     1
 70
    58
 90
        2
176
     0
 90
        2
176
     0
 90
        0
176
     0
 90
        0
176
     0
 40
0.6
176
     0
 40
30.0
176
     0
 62
     7
420
 16777215
176
     0
 90
        1
176
     0
 90
        4
176
     0
 62
     7
176
     0
 62
   257
176
     0
 90
        1
176
     0
 90
        1
176
     0
 40
1.0
176
     0
 90
        8
176
     2
 62
     7
176
     0
 40
1.0
176
     0
 90
        1
176
     0
 90
        6
176
     0
 90
        2
176
     0
 62
     7
176
     0
 90
        5
176
     0
 90
        0
176
     0
 90
        0
176
     0
290
     0
176
     0
 90
        1
176
     0
 40
0.0
176
     0
 90
        0
176
     0
290
     0
176
     0
290
     1
176
     0
290
     1
176
     0
290
     0
176
     0
290
     0
176
     0
290
     0
176
     0
290
     0
176
     0
290
     0
176
     0
290
     0
176
     0
 90
       50
176
     0
 40
0.0
176
     0
 40
1.0
176
     0
 90
        0
176
     0
 62
    18
420
        0
176
     0
 90
       50
176
     0
 90
        3
176
     0
 62
     5
420
      255
176
     0
290
     0
176
     0
 90
       50
176
     0
 90
       50
176
     0
 90
       50
176
     0
290
     0
176
     0
 90
       50
176
     0
 62
   256
176
     0
 40
1.0
176
     0
 90
        2
176
     0
  1
strokes_ogs.tif
176
     0
290
     0
176
     0
 40
1.0
176
     0
 40
1.0
176
     0
  0
VISUALSTYLE
  5
38
102
{ACAD_REACTORS
330
29
102
}
330
29
100
AcDbVisualStyle
  2
Facepattern
 70
    15
177
     3
291
     1
 70
    58
 90
        2
176
     1
 90
        2
176
     1
 90
        0
176
     1
 90
        0
176
     1
 40
0.6
176
     1
 40
30.0
176
     1
 62
     7
420
 16777215
176
     1
 90
        1
176
     1
 90
        4
176
     1
 62
     7
176
     1
 62
   257
176
     1
 90
        1
176
     1
 90
        1
176
     1
 40
1.0
176
     1
 90
        8
176
     1
 62
     7
176
     1
 40
1.0
176
     1
 90
        1
176
     1
 90
        6
176
     1
 90
        2
176
     1
 62
     7
176
     1
 90
        5
176
     1
 90
        0
176
     1
 90
        0
176
     1
290
     0
176
     1
 90
        1
176
     1
 40
0.0
176
     1
 90
        0
176
     1
290
     0
176
     1
290
     1
176
     1
290
     1
176
     1
290
     0
176
     1
290
     0
176
     1
290
     0
176
     1
290
     0
176
     1
290
     0
176
     1
290
     0
176
     1
 90
       50
176
     1
 40
0.0
176
     1
 40
1.0
176
     1
 90
        0
176
     1
 62
    18
420
        0
176
     1
 90
       50
176
     1
 90
        3
176
     1
 62
     5
420
      255
176
     1
290
     0
176
     1
 90
       50
176
     1
 90
       50
176
     1
 90
       50
176
     1
290
     0
176
     1
 90
       50
176
     1
 62
   256
176
     0
 40
1.0
176
     0
 90
        2
176
     1
  1
strokes_ogs.tif
176
     1
290
     0
176
     1
 40
1.0
176
     1
 40
1.0
176
     1
  0
VISUALSTYLE
  5
2A
102
{ACAD_REACTORS
330
29
102
}
330
29
100
AcDbVisualStyle
  2
Flat
 70
     0
177
     3
291
     1
 70
    58
 90
        2
176
     1
 90
        1
176
     1
 90
        1
176
     1
 90
        2
176
     1
 40
0.6
176
     1
 40
30.0
176
     1
 62
     7
420
 16777215
176
     1
 90
        0
176
     1
 90
        0
176
     1
 62
     7
176
     1
 62
   257
176
     1
 90
        1
176
     1
 90
        1
176
     1
 40
1.0
176
     1
 90
        8
176
     1
 62
     7
176
     1
 40
1.0
176
     1
 90
        1
176
     1
 90
        6
176
     1
 90
        2
176
     1
 62
     7
176
     1
 90
        5
176
     1
 90
        0
176
     1
 90
        0
176
     1
290
     0
176
     1
 90
       13
176
     1
 40
0.0
176
     1
 90
        0
176
     1
290
     0
176
     1
290
     1
176
     1
290
     1
176
     1
290
     0
176
     1
290
     0
176
     1
290
     0
176
     1
290
     0
176
     1
290
     0
176
     1
290
     0
176
     1
 90
       50
176
     1
 40
0.0
176
     1
 40
1.0
176
     1
 90
        0
176
     1
 62
    18
420
        0
176
     1
 90
       50
176
     1
 90
        3
176
     1
 62
     5
420
      255
176
     1
290
     0
176
     1
 90
       50
176
     1
 90
       50
176
     1
 90
       50
176
     1
290
     0
176
     1
 90
       50
176
     1
 62
   256
176
     0
 40
1.0
176
     0
 90
        2
176
     1
  1
strokes_ogs.tif
176
     1
290
     0
176
     1
 40
1.0
176
     1
 40
1.0
176
     1
  0
VISUALSTYLE
  5
2B
102
{ACAD_REACTORS
330
29
102
}
330
29
100
AcDbVisualStyle
  2
FlatWithEdges
 70
     1
177
     3
291
     1
 70
    58
 90
        2
176
     1
 90
        1
176
     1
 90
        1
176
     1
 90
        2
176
     1
 40
0.6
176
     1
 40
30.0
176
     1
 62
     7
420
 16777215
176
     1
 90
        1
176
     1
 90
        0
176
     1
 62
     7
176
     1
 62
   257
176
     1
 90
        1
176
     1
 90
        1
176
     1
 40
1.0
176
     1
 90
        0
176
     1
 62
   257
176
     1
 40
1.0
176
     1
 90
        1
176
     1
 90
        6
176
     1
 90
        2
176
     1
 62
     7
176
     1
 90
        5
176
     1
 90
        0
176
     1
 90
        0
176
     1
290
     0
176
     1
 90
       13
176
     1
 40
0.0
176
     1
 90
        0
176
     1
290
     0
176
     1
290
     1
176
     1
290
     1
176
     1
290
     0
176
     1
290
     0
176
     1
290
     0
176
     1
290
     0
176
     1
290
     0
176
     1
290
     0
176
     1
 90
       50
176
     1
 40
0.0
176
     1
 40
1.0
176
     1
 90
        0
176
     1
 62
    18
420
        0
176
     1
 90
       50
176
     1
 90
        3
176
     1
 62
     5
420
      255
176
     1
290
     0
176
     1
 90
       50
176
     1
 90
       50
176
     1
 90
       50
176
     1
290
     0
176
     1
 90
       50
176
     1
 62
   256
176
     0
 40
1.0
176
     0
 90
        2
176
     1
  1
strokes_ogs.tif
176
     1
290
     0
176
     1
 40
1.0
176
     1
 40
1.0
176
     1
  0
VISUALSTYLE
  5
2C
102
{ACAD_REACTORS
330
29
102
}
330
29
100
AcDbVisualStyle
  2
Gouraud
 70
     2
177
     3
291
     1
 70
    58
 90
        2
176
     1
 90
        2
176
     1
 90
        1
176
     1
 90
        2
176
     1
 40
0.6
176
     1
 40
30.0
176
     1
 62
     7
420
 16777215
176
     1
 90
        0
176
     1
 90
        0
176
     1
 62
     7
176
     1
 62
   257
176
     1
 90
        1
176
     1
 90
        1
176
     1
 40
1.0
176
     1
 90
        0
176
     1
 62
     7
176
     1
 40
1.0
176
     1
 90
        1
176
     1
 90
        6
176
     1
 90
        2
176
     1
 62
     7
176
     1
 90
        5
176
     1
 90
        0
176
     1
 90
        0
176
     1
290
     0
176
     1
 90
       13
176
     1
 40
0.0
176
     1
 90
        0
176
     1
290
     0
176
     1
290
     1
176
     1
290
     1
176
     1
290
     0
176
     1
290
     0
176
     1
290
     0
176
     1
290
     0
176
     1
290
     0
176
     1
290
     0
176
     1
 90
       50
176
     1
 40
0.0
176
     1
 40
1.0
176
     1
 90
        0
176
     1
 62
    18
420
        0
176
     1
 90
       50
176
     1
 90
        3
176
     1
 62
     5
420
      255
176
     1
290
     0
176
     1
 90
       50
176
     1
 90
       50
176
     1
 90
       50
176
     1
290
     0
176
     1
 90
       50
176
     1
 62
   256
176
     0
 40
1.0
176
     0
 90
        2
176
     1
  1
strokes_ogs.tif
176
     1
290
     0
176
     1
 40
1.0
176
     1
 40
1.0
176
     1
  0
VISUALSTYLE
  5
2D
102
{ACAD_REACTORS
330
29
102
}
330
29
100
AcDbVisualStyle
  2
GouraudWithEdges
 70
     3
177
     3
291
     1
 70
    58
 90
        2
176
     1
 90
        2
176
     1
 90
        1
176
     1
 90
        2
176
     1
 40
0.6
176
     1
 40
30.0
176
     1
 62
     7
420
 16777215
176
     1
 90
        1
176
     1
 90
        0
176
     1
 62
     7
176
     1
 62
   257
176
     1
 90
        1
176
     1
 90
        1
176
     1
 40
1.0
176
     1
 90
        0
176
     1
 62
   257
176
     1
 40
1.0
176
     1
 90
        1
176
     1
 90
        6
176
     1
 90
        2
176
     1
 62
     7
176
     1
 90
        5
176
     1
 90
        0
176
     1
 90
        0
176
     1
290
     0
176
     1
 90
       13
176
     1
 40
0.0
176
     1
 90
        0
176
     1
290
     0
176
     1
290
     1
176
     1
290
     1
176
     1
290
     0
176
     1
290
     0
176
     1
290
     0
176
     1
290
     0
176
     1
290
     0
176
     1
290
     0
176
     1
 90
       50
176
     1
 40
0.0
176
     1
 40
1.0
176
     1
 90
        0
176
     1
 62
    18
420
        0
176
     1
 90
       50
176
     1
 90
        3
176
     1
 62
     5
420
      255
176
     1
290
     0
176
     1
 90
       50
176
     1
 90
       50
176
     1
 90
       50
176
     1
290
     0
176
     1
 90
       50
176
     1
 62
   256
176
     0
 40
1.0
176
     0
 90
        2
176
     1
  1
strokes_ogs.tif
176
     1
290
     0
176
     1
 40
1.0
176
     1
 40
1.0
176
     1
  0
VISUALSTYLE
  5
31
102
{ACAD_REACTORS
330
29
102
}
330
29
100
AcDbVisualStyle
  2
Hidden
 70
     6
177
     3
291
     0
 70
    58
 90
        1
176
     1
 90
        2
176
     1
 90
        2
176
     1
 90
        0
176
     1
 40
0.6
176
     1
 40
30.0
176
     1
 62
     7
420
 16777215
176
     1
 90
        2
176
     1
 90
        2
176
     1
 62
     7
176
     1
 62
   257
176
     1
 90
        2
176
     1
 90
        1
176
     1
 40
40.0
176
     1
 90
        0
176
     1
 62
   257
176
     1
 40
1.0
176
     1
 90
        1
176
     1
 90
        6
176
     1
 90
        2
176
     1
 62
     7
176
     1
 90
        3
176
     1
 90
        0
176
     1
 90
        0
176
     1
290
     0
176
     1
 90
        1
176
     1
 40
0.0
176
     1
 90
        0
176
     1
290
     0
176
     1
290
     1
176
     1
290
     1
176
     1
290
     0
176
     1
290
     0
176
     1
290
     0
176
     1
290
     0
176
     1
290
     0
176
     1
290
     0
176
     1
 90
       50
176
     1
 40
0.0
176
     1
 40
1.0
176
     1
 90
        0
176
     1
 62
    18
420
        0
176
     1
 90
       50
176
     1
 90
        3
176
     1
 62
     5
420
      255
176
     1
290
     0
176
     1
 90
       50
176
     1
 90
       50
176
     1
 90
       50
176
     1
290
     0
176
     1
 90
       50
176
     1
 62
   256
176
     0
 40
1.0
176
     0
 90
        2
176
     1
  1
strokes_ogs.tif
176
     1
290
     0
176
     1
 40
1.0
176
     1
 40
1.0
176
     1
  0
VISUALSTYLE
  5
3F
102
{ACAD_REACTORS
330
29
102
}
330
29
100
AcDbVisualStyle
  2
JitterOff
 70
    20
177
     3
291
     1
 70
    58
 90
        2
176
     0
 90
        2
176
     0
 90
        0
176
     0
 90
        0
176
     0
 40
0.6
176
     0
 40
30.0
176
     0
 62
     7
420
 16777215
176
     0
 90
        1
176
     0
 90
        4
176
     0
 62
     7
176
     0
 62
   257
176
     0
 90
        1
176
     0
 90
        1
176
     0
 40
1.0
176
     0
 90
       10
176
     2
 62
     7
176
     0
 40
1.0
176
     0
 90
        1
176
     0
 90
        6
176
     0
 90
        2
176
     0
 62
     7
176
     0
 90
        5
176
     0
 90
        0
176
     0
 90
        0
176
     0
290
     0
176
     0
 90
        1
176
     0
 40
0.0
176
     0
 90
        0
176
     0
290
     0
176
     0
290
     1
176
     0
290
     1
176
     0
290
     0
176
     0
290
     0
176
     0
290
     0
176
     0
290
     0
176
     0
290
     0
176
     0
290
     0
176
     0
 90
       50
176
     0
 40
0.0
176
     0
 40
1.0
176
     0
 90
        0
176
     0
 62
    18
420
        0
176
     0
 90
       50
176
     0
 90
        3
176
     0
 62
     5
420
      255
176
     0
290
     0
176
     0
 90
       50
176
     0
 90
       50
176
     0
 90
       50
176
     0
290
     0
176
     0
 90
       50
176
     0
 62
   256
176
     0
 40
1.0
176
     0
 90
        2
176
     0
  1
strokes_ogs.tif
176
     0
290
     0
176
     0
 40
1.0
176
     0
 40
1.0
176
     0
  0
VISUALSTYLE
  5
37
102
{ACAD_REACTORS
330
29
102
}
330
29
100
AcDbVisualStyle
  2
Linepattern
 70
    14
177
     3
291
     1
 70
    58
 90
        2
176
     1
 90
        2
176
     1
 90
        0
176
     1
 90
        0
176
     1
 40
0.6
176
     1
 40
30.0
176
     1
 62
     7
420
 16777215
176
     1
 90
        1
176
     1
 90
        4
176
     1
 62
     7
176
     1
 62
   257
176
     1
 90
        7
176
     1
 90
        7
176
     1
 40
1.0
176
     1
 90
        8
176
     1
 62
     7
176
     1
 40
1.0
176
     1
 90
        1
176
     1
 90
        6
176
     1
 90
        2
176
     1
 62
     7
176
     1
 90
        5
176
     1
 90
        0
176
     1
 90
        0
176
     1
290
     0
176
     1
 90
        1
176
     1
 40
0.0
176
     1
 90
        0
176
     1
290
     0
176
     1
290
     1
176
     1
290
     1
176
     1
290
     0
176
     1
290
     0
176
     1
290
     0
176
     1
290
     0
176
     1
290
     0
176
     1
290
     0
176
     1
 90
       50
176
     1
 40
0.0
176
     1
 40
1.0
176
     1
 90
        0
176
     1
 62
    18
420
        0
176
     1
 90
       50
176
     1
 90
        3
176
     1
 62
     5
420
      255
176
     1
290
     0
176
     1
 90
       50
176
     1
 90
       50
176
     1
 90
       50
176
     1
290
     0
176
     1
 90
       50
176
     1
 62
   256
176
     0
 40
1.0
176
     0
 90
        2
176
     1
  1
strokes_ogs.tif
176
     1
290
     0
176
     1
 40
1.0
176
     1
 40
1.0
176
     1
  0
VISUALSTYLE
  5
40
102
{ACAD_REACTORS
330
29
102
}
330
29
100
AcDbVisualStyle
  2
OverhangOff
 70
    21
177
     3
291
     1
 70
    58
 90
        2
176
     0
 90
        2
176
     0
 90
        0
176
     0
 90
        0
176
     0
 40
0.6
176
     0
 40
30.0
176
     0
 62
     7
420
 16777215
176
     0
 90
        1
176
     0
 90
        4
176
     0
 62
     7
176
     0
 62
   257
176
     0
 90
        1
176
     0
 90
        1
176
     0
 40
1.0
176
     0
 90
        9
176
     2
 62
     7
176
     0
 40
1.0
176
     0
 90
        1
176
     0
 90
        6
176
     0
 90
        2
176
     0
 62
     7
176
     0
 90
        5
176
     0
 90
        0
176
     0
 90
        0
176
     0
290
     0
176
     0
 90
        1
176
     0
 40
0.0
176
     0
 90
        0
176
     0
290
     0
176
     0
290
     1
176
     0
290
     1
176
     0
290
     0
176
     0
290
     0
176
     0
290
     0
176
     0
290
     0
176
     0
290
     0
176
     0
290
     0
176
     0
 90
       50
176
     0
 40
0.0
176
     0
 40
1.0
176
     0
 90
        0
176
     0
 62
    18
420
        0
176
     0
 90
       50
176
     0
 90
        3
176
     0
 62
     5
420
      255
176
     0
290
     0
176
     0
 90
       50
176
     0
 90
       50
176
     0
 90
       50
176
     0
290
     0
176
     0
 90
       50
176
     0
 62
   256
176
     0
 40
1.0
176
     0
 90
        2
176
     0
  1
strokes_ogs.tif
176
     0
290
     0
176
     0
 40
1.0
176
     0
 40
1.0
176
     0
  0
VISUALSTYLE
  5
33
102
{ACAD_REACTORS
330
29
102
}
330
29
100
AcDbVisualStyle
  2
Realistic
 70
     8
177
     3
291
     0
 70
    58
 90
        2
176
     1
 90
        3
176
     1
 90
        0
176
     1
 90
        2
176
     1
 40
0.6
176
     1
 40
30.0
176
     1
 62
     7
420
 16777215
176
     1
 90
        0
176
     1
 90
        0
176
     1
 62
     7
176
     1
 62
   257
176
     1
 90
        1
176
     1
 90
        1
176
     1
 40
1.0
176
     1
 90
        8
176
     1
 62
   257
176
     1
 40
1.0
176
     1
 90
        1
176
     1
 90
        6
176
     1
 90
        2
176
     1
 62
     7
176
     1
 90
        3
176
     1
 90
        0
176
     1
 90
        0
176
     1
290
     0
176
     1
 90
       13
176
     1
 40
0.0
176
     1
 90
        0
176
     1
290
     0
176
     1
290
     1
176
     1
290
     1
176
     1
290
     0
176
     1
290
     0
176
     1
290
     0
176
     1
290
     0
176
     1
290
     0
176
     1
290
     0
176
     1
 90
       50
176
     1
 40
0.0
176
     1
 40
1.0
176
     1
 90
        0
176
     1
 62
    18
420
        0
176
     1
 90
       50
176
     1
 90
        3
176
     1
 62
     5
420
      255
176
     1
290
     0
176
     1
 90
       50
176
     1
 90
       50
176
     1
 90
       50
176
     1
290
     0
176
     1
 90
       50
176
     1
 62
   256
176
     0
 40
1.0
176
     0
 90
        2
176
     1
  1
strokes_ogs.tif
176
     1
290
     0
176
     1
 40
1.0
176
     1
 40
1.0
176
     1
  0
VISUALSTYLE
  5
3E
102
{ACAD_REACTORS
330
29
102
}
330
29
100
AcDbVisualStyle
  2
Shaded
 70
    27
177
     3
291
     0
 70
    58
 90
        2
176
     1
 90
        2
176
     1
 90
        1
176
     1
 90
        2
176
     1
 40
0.6
176
     1
 40
30.0
176
     1
 62
     7
420
 16777215
176
     1
 90
        0
176
     1
 90
        4
176
     1
 62
     7
176
     1
 62
   257
176
     1
 90
        1
176
     1
 90
        1
176
     1
 40
1.0
176
     1
 90
        8
176
     1
 62
   257
176
     1
 40
1.0
176
     1
 90
        1
176
     1
 90
        6
176
     1
 90
        2
176
     1
 62
     8
420
  7895160
176
     1
 90
        3
176
     1
 90
        0
176
     1
 90
        0
176
     1
290
     0
176
     1
 90
        5
176
     1
 40
0.0
176
     1
 90
        0
176
     1
290
     0
176
     1
290
     1
176
     1
290
     1
176
     1
290
     0
176
     1
290
     0
176
     1
290
     0
176
     1
290
     0
176
     1
290
     0
176
     1
290
     0
176
     1
 90
       50
176
     1
 40
0.0
176
     1
 40
1.0
176
     1
 90
        0
176
     1
 62
    18
420
        0
176
     1
 90
       50
176
     1
 90
        3
176
     1
 62
     5
420
      255
176
     1
290
     0
176
     1
 90
       50
176
     1
 90
       50
176
     1
 90
       50
176
     1
290
     0
176
     1
 90
       50
176
     1
 62
   256
176
     0
 40
1.0
176
     0
 90
        2
176
     1
  1
strokes_ogs.tif
176
     1
290
     0
176
     1
 40
1.0
176
     1
 40
1.0
176
     1
  0
VISUALSTYLE
  5
3D
102
{ACAD_REACTORS
330
29
102
}
330
29
100
AcDbVisualStyle
  2
Shaded with edges
 70
    26
177
     3
291
     0
 70
    58
 90
        2
176
     1
 90
        2
176
     1
 90
        1
176
     1
 90
        2
176
     1
 40
0.6
176
     1
 40
30.0
176
     1
 62
     7
420
 16777215
176
     1
 90
        1
176
     1
 90
        2
176
     1
 62
     7
176
     1
 62
   257
176
     1
 90
        2
176
     1
 90
        1
176
     1
 40
1.0
176
     1
 90
        8
176
     1
 62
   257
176
     1
 40
1.0
176
     1
 90
        1
176
     1
 90
        6
176
     1
 90
        2
176
     1
 62
     7
176
     1
 90
        3
176
     1
 90
        0
176
     1
 90
        0
176
     1
290
     0
176
     1
 90
        5
176
     1
 40
0.0
176
     1
 90
        0
176
     1
290
     0
176
     1
290
     1
176
     1
290
     1
176
     1
290
     0
176
     1
290
     0
176
     1
290
     0
176
     1
290
     0
176
     1
290
     0
176
     1
290
     0
176
     1
 90
       50
176
     1
 40
0.0
176
     1
 40
1.0
176
     1
 90
        0
176
     1
 62
    18
420
        0
176
     1
 90
       50
176
     1
 90
        3
176
     1
 62
     5
420
      255
176
     1
290
     0
176
     1
 90
       50
176
     1
 90
       50
176
     1
 90
       50
176
     1
290
     0
176
     1
 90
       50
176
     1
 62
   256
176
     0
 40
1.0
176
     0
 90
        2
176
     1
  1
strokes_ogs.tif
176
     1
290
     0
176
     1
 40
1.0
176
     1
 40
1.0
176
     1
  0
VISUALSTYLE
  5
3A
102
{ACAD_REACTORS
330
29
102
}
330
29
100
AcDbVisualStyle
  2
Shades of Gray
 70
    23
177
     3
291
     0
 70
    58
 90
        2
176
     1
 90
        2
176
     1
 90
        3
176
     1
 90
        0
176
     1
 40
0.6
176
     1
 40
30.0
176
     1
 62
     7
420
 16777215
176
     1
 90
        2
176
     1
 90
        2
176
     1
 62
     7
176
     1
 62
     7
176
     1
 90
        1
176
     1
 90
        1
176
     1
 40
40.0
176
     1
 90
        8
176
     1
 62
     7
176
     1
 40
1.0
176
     1
 90
        1
176
     1
 90
        6
176
     1
 90
        2
176
     1
 62
     7
176
     1
 90
        3
176
     1
 90
        0
176
     1
 90
        0
176
     1
290
     0
176
     1
 90
        1
176
     1
 40
0.0
176
     1
 90
        0
176
     1
290
     0
176
     1
290
     1
176
     1
290
     1
176
     1
290
     0
176
     1
290
     0
176
     1
290
     0
176
     1
290
     0
176
     1
290
     0
176
     1
290
     0
176
     1
 90
       50
176
     1
 40
0.0
176
     1
 40
1.0
176
     1
 90
        0
176
     1
 62
    18
420
        0
176
     1
 90
       50
176
     1
 90
        3
176
     1
 62
     5
420
      255
176
     1
290
     0
176
     1
 90
       50
176
     1
 90
       50
176
     1
 90
       50
176
     1
290
     0
176
     1
 90
       50
176
     1
 62
   256
176
     0
 40
1.0
176
     0
 90
        2
176
     1
  1
strokes_ogs.tif
176
     1
290
     0
176
     1
 40
1.0
176
     1
 40
1.0
176
     1
  0
VISUALSTYLE
  5
3B
102
{ACAD_REACTORS
330
29
102
}
330
29
100
AcDbVisualStyle
  2
Sketchy
 70
    24
177
     3
291
     0
 70
    58
 90
        1
176
     1
 90
        2
176
     1
 90
        2
176
     1
 90
        0
176
     1
 40
0.6
176
     1
 40
30.0
176
     1
 62
     7
420
 16777215
176
     1
 90
        2
176
     1
 90
        2
176
     1
 62
     7
176
     1
 62
     7
176
     1
 90
        1
176
     1
 90
        1
176
     1
 40
40.0
176
     1
 90
       11
176
     1
 62
     7
176
     1
 40
1.0
176
     1
 90
        1
176
     1
 90
        6
176
     1
 90
        2
176
     1
 62
     7
176
     1
 90
        6
176
     1
 90
        0
176
     1
 90
        0
176
     1
290
     0
176
     1
 90
        1
176
     1
 40
0.0
176
     1
 90
        0
176
     1
290
     0
176
     1
290
     1
176
     1
290
     1
176
     1
290
     0
176
     1
290
     0
176
     1
290
     0
176
     1
290
     0
176
     1
290
     0
176
     1
290
     0
176
     1
 90
       50
176
     1
 40
0.0
176
     1
 40
1.0
176
     1
 90
        0
176
     1
 62
    18
420
        0
176
     1
 90
       50
176
     1
 90
        3
176
     1
 62
     5
420
      255
176
     1
290
     0
176
     1
 90
       50
176
     1
 90
       50
176
     1
 90
       50
176
     1
290
     0
176
     1
 90
       50
176
     1
 62
   256
176
     0
 40
1.0
176
     0
 90
        2
176
     1
  1
strokes_ogs.tif
176
     1
290
     0
176
     1
 40
1.0
176
     1
 40
1.0
176
     1
  0
VISUALSTYLE
  5
36
102
{ACAD_REACTORS
330
29
102
}
330
29
100
AcDbVisualStyle
  2
Thicken
 70
    13
177
     3
291
     1
 70
    58
 90
        2
176
     1
 90
        2
176
     1
 90
        0
176
     1
 90
        0
176
     1
 40
0.6
176
     1
 40
30.0
176
     1
 62
     7
420
 16777215
176
     1
 90
        1
176
     1
 90
        4
176
     1
 62
     7
176
     1
 62
   257
176
     1
 90
        1
176
     1
 90
        1
176
     1
 40
1.0
176
     1
 90
       12
176
     1
 62
     7
176
     1
 40
1.0
176
     1
 90
        1
176
     1
 90
        6
176
     1
 90
        2
176
     1
 62
     7
176
     1
 90
        5
176
     1
 90
        0
176
     1
 90
        0
176
     1
290
     0
176
     1
 90
        1
176
     1
 40
0.0
176
     1
 90
        0
176
     1
290
     0
176
     1
290
     1
176
     1
290
     1
176
     1
290
     0
176
     1
290
     0
176
     1
290
     0
176
     1
290
     0
176
     1
290
     0
176
     1
290
     0
176
     1
 90
       50
176
     1
 40
0.0
176
     1
 40
1.0
176
     1
 90
        0
176
     1
 62
    18
420
        0
176
     1
 90
       50
176
     1
 90
        3
176
     1
 62
     5
420
      255
176
     1
290
     0
176
     1
 90
       50
176
     1
 90
       50
176
     1
 90
       50
176
     1
290
     0
176
     1
 90
       50
176
     1
 62
   256
176
     0
 40
1.0
176
     0
 90
        2
176
     1
  1
strokes_ogs.tif
176
     1
290
     0
176
     1
 40
1.0
176
     1
 40
1.0
176
     1
  0
VISUALSTYLE
  5
30
102
{ACAD_REACTORS
330
29
102
}
330
29
100
AcDbVisualStyle
  2
Wireframe
 70
     5
177
     3
291
     0
 70
    58
 90
        0
176
     1
 90
        2
176
     1
 90
        0
176
     1
 90
        0
176
     1
 40
0.6
176
     1
 40
30.0
176
     1
 62
     7
420
 16777215
176
     1
 90
        1
176
     1
 90
        4
176
     1
 62
     7
176
     1
 62
   257
176
     1
 90
        1
176
     1
 90
        1
176
     1
 40
1.0
176
     1
 90
        0
176
     1
 62
   257
176
     1
 40
1.0
176
     1
 90
        1
176
     1
 90
        6
176
     1
 90
        2
176
     1
 62
     7
176
     1
 90
        3
176
     1
 90
        0
176
     1
 90
        0
176
     1
290
     0
176
     1
 90
        1
176
     1
 40
0.0
176
     1
 90
        0
176
     1
290
     0
176
     1
290
     1
176
     1
290
     1
176
     1
290
     0
176
     1
290
     0
176
     1
290
     0
176
     1
290
     0
176
     1
290
     0
176
     1
290
     0
176
     1
 90
       50
176
     1
 40
0.0
176
     1
 40
1.0
176
     1
 90
        0
176
     1
 62
    18
420
        0
176
     1
 90
       50
176
     1
 90
        3
176
     1
 62
     5
420
      255
176
     1
290
     0
176
     1
 90
       50
176
     1
 90
       50
176
     1
 90
       50
176
     1
290
     0
176
     1
 90
       50
176
     1
 62
   256
176
     0
 40
1.0
176
     0
 90
        2
176
     1
  1
strokes_ogs.tif
176
     1
290
     0
176
     1
 40
1.0
176
     1
 40
1.0
176
     1
  0
VISUALSTYLE
  5
3C
102
{ACAD_REACTORS
330
29
102
}
330
29
100
AcDbVisualStyle
  2
X-Ray
 70
    25
177
     3
291
     0
 70
    58
 90
        2
176
     1
 90
        2
176
     1
 90
        1
176
     1
 90
        1
176
     1
 40
0.5
176
     1
 40
30.0
176
     1
 62
     7
420
 16777215
176
     1
 90
        1
176
     1
 90
        0
176
     1
 62
     7
176
     1
 62
   257
176
     1
 90
        1
176
     1
 90
        1
176
     1
 40
1.0
176
     1
 90
        8
176
     1
 62
     7
176
     1
 40
1.0
176
     1
 90
        1
176
     1
 90
        6
176
     1
 90
        2
176
     1
 62
     7
176
     1
 90
        3
176
     1
 90
        0
176
     1
 90
        0
176
     1
290
     0
176
     1
 90
       13
176
     1
 40
0.0
176
     1
 90
        0
176
     1
290
     0
176
     1
290
     1
176
     1
290
     1
176
     1
290
     0
176
     1
290
     0
176
     1
290
     0
176
     1
290
     0
176
     1
290
     0
176
     1
290
     0
176
     1
 90
       50
176
     1
 40
0.0
176
     1
 40
1.0
176
     1
 90
        0
176
     1
 62
    18
420
        0
176
     1
 90
       50
176
     1
 90
        3
176
     1
 62
     5
420
      255
176
     1
290
     0
176
     1
 90
       50
176
     1
 90
       50
176
     1
 90
       50
176
     1
290
     0
176
     1
 90
       50
176
     1
 62
   256
176
     0
 40
1.0
176
     0
 90
        2
176
     1
  1
strokes_ogs.tif
176
     1
290
     0
176
     1
 40
1.0
176
     1
 40
1.0
176
     1
  0
DICTIONARYVAR
  5
190
102
{ACAD_REACTORS
330
18B
102
}
330
18B
100
DictionaryVariables
280
     0
  1
1:1
  0
DICTIONARYVAR
  5
18D
102
{ACAD_REACTORS
330
18B
102
}
330
18B
100
DictionaryVariables
280
     0
  1
STANDARD
  0
DICTIONARYVAR
  5
18C
102
{ACAD_REACTORS
330
18B
102
}
330
18B
100
DictionaryVariables
280
     0
  1
STANDARD
  0
DICTIONARYVAR
  5
18E
102
{ACAD_REACTORS
330
18B
102
}
330
18B
100
DictionaryVariables
280
     0
  1
Imperial24
  0
DICTIONARYVAR
  5
18F
102
{ACAD_REACTORS
330
18B
102
}
330
18B
100
DictionaryVariables
280
     0
  1
Imperial24
  0
DICTIONARY
  5
1A
330
19
100
AcDbDictionary
280
     1
281
     1
  3
BUMPTILE
360
1C
  3
DIFFUSETILE
360
1B
  3
OPACITYTILE
360
1F
  3
REFLECTIONTILE
360
1E
  3
REFRACTIONTILE
360
20
  3
SPECULARTILE
360
1D
  0
DICTIONARY
  5
12
330
11
100
AcDbDictionary
280
     1
281
     1
  3
BUMPTILE
360
14
  3
DIFFUSETILE
360
13
  3
OPACITYTILE
360
17
  3
REFLECTIONTILE
360
16
  3
REFRACTIONTILE
360
18
  3
SPECULARTILE
360
15
  0
DICTIONARY
  5
22
330
21
100
AcDbDictionary
280
     1
281
     1
  3
BUMPTILE
360
24
  3
DIFFUSETILE
360
23
  3
OPACITYTILE
360
27
  3
REFLECTIONTILE
360
26
  3
REFRACTIONTILE
360
28
  3
SPECULARTILE
360
25
  0
DICTIONARY
  5
191
330
65
100
AcDbDictionary
280
     1
281
     1
  3
ACAD_ROUNDTRIP_2008_TABLESTYLE_CELLSTYLEMAP
360
192
  0
XRECORD
  5
1C
102
{ACAD_REACTORS
330
1A
102
}
330
1A
100
AcDbXrecord
280
     1
270
     1
271
     1
  0
XRECORD
  5
1B
102
{ACAD_REACTORS
330
1A
102
}
330
1A
100
AcDbXrecord
280
     1
270
     1
271
     1
  0
XRECORD
  5
1F
102
{ACAD_REACTORS
330
1A
102
}
330
1A
100
AcDbXrecord
280
     1
270
     1
271
     1
  0
XRECORD
  5
1E
102
{ACAD_REACTORS
330
1A
102
}
330
1A
100
AcDbXrecord
280
     1
270
     1
271
     1
  0
XRECORD
  5
20
102
{ACAD_REACTORS
330
1A
102
}
330
1A
100
AcDbXrecord
280
     1
270
     1
271
     1
  0
XRECORD
  5
1D
102
{ACAD_REACTORS
330
1A
102
}
330
1A
100
AcDbXrecord
280
     1
270
     1
271
     1
  0
XRECORD
  5
14
102
{ACAD_REACTORS
330
12
102
}
330
12
100
AcDbXrecord
280
     1
270
     1
271
     1
  0
XRECORD
  5
13
102
{ACAD_REACTORS
330
12
102
}
330
12
100
AcDbXrecord
280
     1
270
     1
271
     1
  0
XRECORD
  5
17
102
{ACAD_REACTORS
330
12
102
}
330
12
100
AcDbXrecord
280
     1
270
     1
271
     1
  0
XRECORD
  5
16
102
{ACAD_REACTORS
330
12
102
}
330
12
100
AcDbXrecord
280
     1
270
     1
271
     1
  0
XRECORD
  5
18
102
{ACAD_REACTORS
330
12
102
}
330
12
100
AcDbXrecord
280
     1
270
     1
271
     1
  0
XRECORD
  5
15
102
{ACAD_REACTORS
330
12
102
}
330
12
100
AcDbXrecord
280
     1
270
     1
271
     1
  0
XRECORD
  5
24
102
{ACAD_REACTORS
330
22
102
}
330
22
100
AcDbXrecord
280
     1
270
     1
271
     1
  0
XRECORD
  5
23
102
{ACAD_REACTORS
330
22
102
}
330
22
100
AcDbXrecord
280
     1
270
     1
271
     1
  0
XRECORD
  5
27
102
{ACAD_REACTORS
330
22
102
}
330
22
100
AcDbXrecord
280
     1
270
     1
271
     1
  0
XRECORD
  5
26
102
{ACAD_REACTORS
330
22
102
}
330
22
100
AcDbXrecord
280
     1
270
     1
271
     1
  0
XRECORD
  5
28
102
{ACAD_REACTORS
330
22
102
}
330
22
100
AcDbXrecord
280
     1
270
     1
271
     1
  0
XRECORD
  5
25
102
{ACAD_REACTORS
330
22
102
}
330
22
100
AcDbXrecord
280
     1
270
     1
271
     1
  0
CELLSTYLEMAP
  5
192
102
{ACAD_REACTORS
330
191
102
}
330
191
100
AcDbCellStyleMap
 90
        3
300
CELLSTYLE
  1
TABLEFORMAT_BEGIN
 90
        5
170
     1
 91
        0
 92
    32768
 62
   257
 93
        1
300
CONTENTFORMAT
  1
CONTENTFORMAT_BEGIN
 90
        0
 91
        0
 92
      512
 93
        0
300

 40
0.0
140
1.0
 94
        5
 62
     0
340
55
144
0.25
309
CONTENTFORMAT_END
171
     0
 94
        0
309
TABLEFORMAT_END
  1
CELLSTYLE_BEGIN
 90
        1
 91
        1
300
_TITLE
309
CELLSTYLE_END
300
CELLSTYLE
  1
TABLEFORMAT_BEGIN
 90
        5
170
     1
 91
        0
 92
        0
 62
   257
 93
        1
300
CONTENTFORMAT
  1
CONTENTFORMAT_BEGIN
 90
        0
 91
        0
 92
      512
 93
        0
300

 40
0.0
140
1.0
 94
        5
 62
     0
340
55
144
0.18
309
CONTENTFORMAT_END
171
     0
 94
        0
309
TABLEFORMAT_END
  1
CELLSTYLE_BEGIN
 90
        2
 91
        1
300
_HEADER
309
CELLSTYLE_END
300
CELLSTYLE
  1
TABLEFORMAT_BEGIN
 90
        5
170
     1
 91
        0
 92
        0
 62
   257
 93
        1
300
CONTENTFORMAT
  1
CONTENTFORMAT_BEGIN
 90
        0
 91
        0
 92
      512
 93
        0
300

 40
0.0
140
1.0
 94
        2
 62
     0
340
55
144
0.18
309
CONTENTFORMAT_END
171
     0
 94
        0
309
TABLEFORMAT_END
  1
CELLSTYLE_BEGIN
 90
        3
 91
        2
300
_DATA
309
CELLSTYLE_END
  0
ENDSEC
  0
EOF
